Log in

One click and you are in

Login with Facebook Login with Google

Why sign up and log in

Guitar Tabs Explorer
Oasis tabs for Helter skelter live

Guitar tabs with lyrics

Oasis-Helter Skelter (beatles Cover)

Chords

Key:-
A chord diagramBB - bend to number after A chord diagramBB
\ - Slide Up
/- Slide down
H - Hammer on
P - Pull off
R - release bend
D7(')- xxx535
D6(')-xxx435
D5(')-xxx335
A chord diagramFF       -x33211
A chord diagramD MajorD      -xx0232
A chord diagramG+G      - x55433

Okay Heres the Intro- A chord diagramD7D7 for a few bars then

A chord diagramD7D7						A chord diagramD6D6
When I get to the bottom I go back to the top of the slide
					A chord diagramD5D5
Where I stop and I turn and I go for a ride
					A chord diagramFF
Till I get to the bottom and I see you again.


 Then It Goes to the first verse - Play the A chord diagramD MajorD Like This( listen to the song and you'll
why)

e--2-2-2-2-0-2-2-2-2-0----------------------------------------|
B--3-3-3-3-1-3-3-3-3-1----------------------------------------|
G--2-2-2-3-0-2-2-2-2-0----------------------------------------|
D--0-0-0-----0-----0------------------------------------------|
A----0--------------------------------------------------------|
E-------------------------------------------------------------|

A chord diagramD MajorD
Do you, don't you want me to love you

I'm coming down fast but I'm miles above you
A chord diagramFF
Tell me tell me tell me come on tell me the answer
A chord diagramG+G				A chord diagramD MajorD
You may be a lover but you ain't no dancer.

And The Chorus Riff

Helter Skelter			Helter Skelter
e-3-----3-----------------2--2--2--2--------------------------------|
B-3-----3-----------------3--3--3--3--------------------------------|
G-4--4--4-\-3-2-0---------2-----2--2--------------------------------|
D-5--5--5------3-2-0------0-----0----3-2-0--------------------------|
A-5--5--5------------3---------------------3-2-0--------------------|
E------------------------------------------------3------------------|

Helter Skelter			Oooooooooooo
e-3-----3-------------------------------------------------|
B-3-----3-------------------3B5--5-5-5-5------------------|
G-4--4--4-\-3-2-0--------------3--3-3-3-3-----------------|
D-5--5--5---------3-2-0-----------------------------------|
A-5--5--5---------------3---------------------------------|
E---------------------------------------------------------|

A chord diagramD MajorD
Will you, won't you want me to make you

I'm coming down fast but don't let me break you
A chord diagramFF
Tell me tell me tell me the answer
A chord diagramG+G				A chord diagramD MajorD
You may be a lover but you ain't no dancer.

Chorus Again

Helter Skelter			Helter Skelter
e-3-----3-----------------2--2--2--2--------------------------------|
B-3-----3-----------------3--3--3--3--------------------------------|
G-4--4--4-\-3-2-0---------2-----2--2--------------------------------|
D-5--5--5------3-2-0------0-----0----3-2-0--------------------------|
A-5--5--5------------3---------------------3-2-0--------------------|
E------------------------------------------------3------------------|

Helter Skelter			Oooooooooooo
e-3-----3--------------------------------------------|
B-3-----3--------------------------------------------|
G-4--4--4-\-3-2-0------------------------------------|
D-5--5--5---------3-2-0------------------------------|
A-5--5--5---------------3----------------------------|
E----------------------------------------------------|


This Is how I play the first solo


e---------------------------------------------------------------------------------|
B-13----13----13-----------------------------------------------------------13B15--|
G-12B14----14----14R12 10-----10-10-x-x-10-10-10--12B14-12B14-12B14-12--10--------|
D-------------------------12--10-10-x-x-10-10-10----------------------------------|
A---------------------------------------------------------------------------------|
E---------------------------------------------------------------------------------|

A chord diagramD7D7							A chord diagramD6D6
When I get to the bottom I go back to the top of the slide
					A chord diagramD5D5
Where I stop and I turn and I go for a ride
					A chord diagramFF	A chord diagramD MajorD
Till I get to the bottom and I see you again.


A chord diagramD MajorD
Well do you, don't you want me to make you

I'm coming down fast but don't let me break you
A chord diagramFF
Tell me tell me tell me the answer
A chord diagramG+G				A chord diagramD MajorD
You may be a lover but you ain't no dancer.


Chorus Again

Helter Skelter			Helter Skelter
e-3-----3-----------------2--2--2--2--------------------------------|
B-3-----3-----------------3--3--3--3--------------------------------|
G-4--4--4-\-3-2-0---------2-----2--2--------------------------------|
D-5--5--5------3-2-0------0-----0----3-2-0--------------------------|
A-5--5--5------------3---------------------3-2-0--------------------|
E------------------------------------------------3------------------|

Helter Skelter			Oooooooooooo
e-3-----3--------------------------------------------|
B-3-----3--------------------------------------------|
G-4--4--4-\-3-2-0------------------------------------|
D-5--5--5---------3-2-0------------------------------|
A-5--5--5---------------3----------------------------|
E----------------------------------------------------|

For the second solo just improvise on the first, because, to be honest, it is extremely
to tab when Gem and Noel Improvise, until you get to this cool little bit

e---------------------------------------------------------------------------------|
B------7-7-\-0-/-7-7-7-7----------------------------------------------------------|
G------5-5-\-0-/-5-5-5-5----------------------------------------------------------|
D------7-7-\-0-/-7-7-7-7----------------------------------------------------------|
A---------------------------0-3b4--0--3b4--0-3b4-0-3b4--0-3b4-0-3b4---------------|
E---------------------------------------------------------------------------------|

e--------------------------14-14-14-14-14-14-----|
B----7-7-\-0-/-7-7-7-7-\---13-13-13-13-13-13-----|
G----5-5-\-0-/-5-5-5-5-\---14-14-13-14-14-14-----|
D----7-7-\-0-/-7-7-7-7-\-------------------------|
A------------------------------------------------|
E------------------------------------------------|

Then it goes to what I can only say is a take on Led Zeppelins Kashmir, which repeats
a little

e--5-5-5-5-5-5-5-5-5-5-5-5-5-5-5-5-5-5-5-5-5-5-5-5-5-5---------|
B--3-3-3-3-3-3-3-3-3-3-3-3-3-3-3-3-3-3-3-3-3-3-3-3-3-3---------|
G--3-3-3-3-3-3-3-4-4-4-4-4-4-5-5-5-5-5-5-5-5-4-4-4-4-4---------|
D--------------------------------------------------------------|
A--------------------------------------------------------------|
E--------------------------------------------------------------|

"Yeah She coming down fast" part
e-2--2--2--2------------------------|
B-3--3--3--3------------------------|
G-2--2--2---------------------------|
D-0-----0----3-2-0------------------|
A-------------------3-2-0-----------|
E---------------------------3-------|

Then the guitars go into feedback for about 30 seconds, but comes back with noels first
of the song, again its hard to tab so I can only give a few riffs to use in it :
This is how it starts anyway
e-------------------------------2-2-2-|
B--13b15--13b15--13b15----------3-3-3-|
G-----------------------10~~~~~-2-2-2-|
D-------------------------------0-0-0-|
A-------------------------------------|
E-------------------------------------|

Heres another riff used a bunch of times
e--------------------------------------------------------------|
B--------------------------------------------------------------|
G----------10---------------10---------------------------------|
D--10-12-------12----10--12-----12-----------------------------|
A--------------------------------------------------------------|
E--------------------------------------------------------------|

Sorry but you're going to have to just improvise until the Wah-Wah bit at the end :

e----------------------------------|
B----------------------------------|
G--0h2p0h2p0h2p0h2p0h2p0h2p0h2p0---|
D----------------------------------|
A----------------------------------|
E----------------------------------|

And that is probably the closest you'll get to Oasis's take on the Beatles classic
Skelter

Please rate it high!!!

Almost there ...

Sign in to get your own page with links to favourite songs and more. You are just one click away...

Login with Facebook Login with Google