Log in

One click and you are in

Login with Facebook Login with Google

Why sign up and log in

Guitar Tabs Explorer
Oasis tabs for Half the world away

Guitar tabs

Title  : Half The World Away
Artist : Oasis
Album  : The Master Plan
Tabbed By: Rav aka AikHow
Email  : redalert159@hotmail.com
Player range: Intermediate to Professional

This is my second tab and I have spent 4 hours tabbing this song,
mistake should be minimum as I have played my own simplified version
for quite sometime before actually tabbing this out excatly to the song.

Please visit my band here - http://www.mp3.com/anew
Do visit it cause I need your support!

Actually the song chorus didn't progress from A chord diagramFF to F#(Its A chord diagramFF all the way),
But I added "F#", cause it sound nicer. Don't be alarm and put off by
this long tab, I have done a very detailed one so its long, but its a very
easy song to play if you try it man!


Starting:
The first 2 pick [(0) (1)] should be there, I guess Oasis made a mistake.
	     A chord diagramC majorC		    A chord diagramFF
E-|--------0----------------1----------------------------------------|
B-|---(1)-----1----------1-----1-------------------------------------|
G-|(0)-----------0------2-2-------2----------------------------------|
D-|------------------------------------------------------------------|
A-|------------------------------------------------------------------|
E-|------------------------------------------------------------------|


Verse 1:
(I'll like to leave this city..)
	     A chord diagramC majorC		    A chord diagramFF
E-|--------0-------------------1-------------------------------------|
B-|-----1-----1-----------1-------1----------------------------------|
G-|--0-----------0------2---2--------2-------------------------------|
D-|------------------------------------------------------------------|
A-|------------------------------------------------------------------|
E-|------------------------------------------------------------------|

Bridge:
(before the chorus)
(And I can feel this warning sign.....)
     A chord diagramC majorC	  A chord diagramE minorEm	     A chord diagramA minorAm		 A chord diagramD MajorD			 A chord diagramFF
E-|------0--------0------------0-----2-------2---------------1-------|
B-|----1---1----0--0------1--1---1------1-------1--------1------1----|
G-|--0--------0--------2-------------------2-------0---2---2-------2-|
D-|------------------------------------------------------------------|
A-|------------------------------------------------------------------|
E-|------------------------------------------------------------------|


Chorus:
Just play what is above twice and this is the chorus
(So here I go..., I'm still scratching arounding in the same old hole)
    A chord diagramA minorAm		   A chord diagramC majorC			 A chord diagramE7E7		     A chord diagramA minorAm
E-|--------0---------------0---------------0---------------0---------|
B-|-----------1---------------1---------------0---------------1------|
G-|-----2--------2------0--------0------1--------1------2--------2---|
D-|------------------------------------------------------------------|
A-|--0---------------3---------------2---------------0---------------|
E-|------------------------------------------------------------------|

(My body feels young, but my mind is very old...)
    A chord diagramFF			   A chord diagramF#F#			 A chord diagramG+G		   A chord diagramG7G7
E-|--------1---------------2-------------3----------------1----------|
B-|----1------1--------2------2-------------0--------------0---------|
G-|------2-------2-------3-------3-----0-------0-----0------0--------|
D-|--3---------------4-----------------------------------------------|
A-|------------------------------------------------------------------|
E-|----------------------------------3-------------3-----------------|

NOTE: For G7, play the bass string and the 3th string as normal.
Hold 3th string for a while before playing "1,2 and 3th" string quickly.

(So what do you say.......)
    A chord diagramA minorAm		   A chord diagramC majorC			 A chord diagramE7E7		     A chord diagramA minorAm
E-|--------0---------------0---------------0------------------0------|
B-|-----------1---------------1---------------0---------1--1-----1---|
G-|-----2--------2------0--------0------1--------1-------------------|
D-|------------------------------------------------------------------|
A-|--0---------------3---------------2---------------0---------------|
E-|------------------------------------------------------------------|

You can pluck the 4th string instead of the 3nd for this, I prefer the
4th as it sound nicer and fuller!
(Half the world away.......)
    A chord diagramFF						    A chord diagramF#F#
E-|---------1-------1-------1------------------2------2------2-------|
B-|----1-------1-------1-------1----------2-------2------2------2----|
G-|--2---2--------2-------2-------2-----3---3--------3------3------3-|
D-|-(3)-------------------------------(4)----------------------------|
A-|------------------------------------------------------------------|
E-|------------------------------------------------------------------|

(Half the world away...)
    A chord diagramC majorC	      A chord diagramE minorEm	    A chord diagramA minorAm	    A chord diagramD MajorD			 A chord diagramFF
E-|--0-------0----------0---0-----2-----2-------------1--------------|
B-|----1-------0----------1---------1-----1-------1------1-----------|
G-|------0-------0------------2-------2-----2---2---2------2---------|
D-|------------------------------------------------------------------|
A-|-3-------2---------0----------------------------------------------|
E-|------------------------------------------------------------------|

   F(contiune)					Strum A chord diagramFF here!!
E-|--1--------1--------1--------1-------------1----------------------|
B-|-----1--------1--------1--------1----------1----------------------|
G-|--------2--------2--------2--------2-------2----------------------|
D-|-------------------------------------------3----------------------|
A-|-------------------------------------------3----------------------|
E-|-------------------------------------------1----------------------|

	     A chord diagramC majorC		    A chord diagramFF		   A chord diagramC majorC		F(1st str is 3)
E-|--------0----------------1----------------0---------------3-------|
B-|-----------1----------1-----1----------------1--------1------1----|
G-|-----0--------0------2-2-------2-------0--------0----2-2--------2-|
D-|------------------------------------------------------------------|
A-|--3---------------------------------3-----------------------------|
E-|------------------------------------------------------------------|

WOHOO! That's the first part!If you still can follow up to here, relax.
Its gonna be a smooth journey from here...... :)

Basically its the same throughout from here on except that some of the
"Am" and "C" has changed to:
          A chord diagramA minorAm		    A chord diagramC majorC
E-|-----------0----|--------0-------|
B-|----1--1------1-|-----------1----|
G-|----------------|-----0--------0-|
D-|----------------|----------------|
A-|--0-------------|--3-------------|
E-|----------------|----------------|

Now for the second part!


Verse 2:
(And when I leave this planet...)
	     A chord diagramC majorC		    A chord diagramFF
E-|--------0-------------------1-------------------------------------|
B-|-----------1-----------1-------1----------------------------------|
G-|-----0--------0------2---2--------2-------------------------------|
D-|------------------------------------------------------------------|
A-|--3---------------------------------------------------------------|
E-|------------------------------------------------------------------|


Bridge:
Play Play Play Until bridge (before the chorus)
(And I can feel this warning sign.....)
     A chord diagramC majorC	  A chord diagramE minorEm	     A chord diagramA minorAm		 A chord diagramD MajorD			 A chord diagramFF
E-|---0--------0-------------0-----2-------2---------------1---------|
B-|-----1--------0------1--1---1------1-------1--------1------1------|
G-|-------0--------0---------------------2-------0---2---2-------2---|
D-|------------------------------------------------------------------|
A-|--3--------2--------0---------------------------------------------|
E-|------------------------------------------------------------------|


Chorus:
(So here I go..., I'm still scratching arounding in the same old hole)
     A chord diagramA minorAm		   A chord diagramC majorC			 A chord diagramE7E7		     A chord diagramA minorAm
E-|--------0---------------0------------0--------------------0-------|
B-|-----------1---------------1------------0-----------1--1------1---|
G-|-----2--------2------0--------0----1------1-----------------------|
D-|------------------------------------------------------------------|
A-|--0---------------3---------------2---------------0---------------|
E-|------------------------------------------------------------------|

(My body feels young, but my mind is very old...)
    A chord diagramFF			   A chord diagramF#F#			 A chord diagramG+G		   A chord diagramG7G7
E-|--------1---------------2-------------3---------------1-----------|
B-|----1------1--------2------2-------------0--------0-----0---------|
G-|------2-------2-------3-------3-----0-------0-------0-----0-------|
D-|--3---------------4-----------------------------------------------|
A-|------------------------------------------------------------------|
E-|----------------------------------3-------------3-----------------|

(So what do you say.......)
    A chord diagramA minorAm		   A chord diagramC majorC			 A chord diagramE7E7		     A chord diagramA minorAm
E-|--------0---------------0---------------0------------------0------|
B-|-----------1---------------1--------0------0---------1--1---------|
G-|-----2--------2------0--------0-------1-------1---------------2---|
D-|------------------------------------------------------------------|
A-|--0---------------3---------------2---------------0---------------|
E-|------------------------------------------------------------------|

(You're half the world away...)
    A chord diagramFF						    A chord diagramF#F#
E-|---------1-------1-------1------------------2------2------2-------|
B-|----1-------1-------1-------1----------2-------2------2------2----|
G-|--2---2--------2-------2-------2-----3---3--------3------3------3-|
D-|-(3)-------------------------------(4)----------------------------|
A-|------------------------------------------------------------------|
E-|------------------------------------------------------------------|


(Half the world away....)
    A chord diagramC majorC	      A chord diagramE minorEm	    A chord diagramA minorAm	    A chord diagramD MajorD			 A chord diagramFF
E-|--0-------0----------0---0-----2-----2-------------1--------------|
B-|----1-------0----------1---------1-----1-------1------1-----------|
G-|------0-------0------------2-------2-----2---2---2------2---------|
D-|------------------------------------------------------------------|
A-|-3-------2---------0----------------------------------------------|
E-|------------------------------------------------------------------|

(No I don't feel down)
   A chord diagramFF 			 Twice			  Thrice
E-|--1----1-----------1----1----1--------------1-----1-----1---------|
B-|----1----1-------1---1-----1----1---------1---1-----1-----1-------|
G-|------2----2----2-2----2------2----2----2--2----2-----2-----2-----|
D-|------------------------------------------------------------------|
A-|------------------------------------------------------------------|
E-|------------------------------------------------------------------|

(Silent here)
    			And one last more           Two claps here
E-|--1-----------------1--------1(Hold)------------------------------|
B-|------1---------1------1------------------------------------------|
G-|--------2----2----2--------2--------------------------------------|
D-|------------------------------------------------------------------|
A-|------------------------------------------------------------------|
E-|------------------------------------------------------------------|


Ending:
For A chord diagramFF you can pluck the 4th string instead of the 3th, it sound better.
(Don't feel down..)
	     A chord diagramC majorC		    A chord diagramFF		   A chord diagramC majorC			  A chord diagramFF
E-|--------0----------------1---------------0---------------1-------|
B-|----------1----------1-----1---------------1---------1------1----|
G-|----0-------0-------2-2-------2------0-------0------2-2--------2-|
D-|-------------------(3)-----------------------------(3)-----------|
A-|--3--------------------------------3-----------------------------|
E-|-----------------------------------------------------------------|

	     A chord diagramC majorC		    A chord diagramFF		   A chord diagramC majorC			  A chord diagramFF
E-|--------0----------------1---------------0---------------1-------|
B-|------3---1----------1-----1-----------3---1---------1------1----|
G-|----0---------------2-2-------2------0--------------2-2--------2-|
D-|-------------------(3)-----------------------------(3)-----------|
A-|--3--------------------------------3-----------------------------|
E-|-----------------------------------------------------------------|X2

	     A chord diagramC majorC		    A chord diagramFF		   A chord diagramC majorC			  A chord diagramFF
E-|--------0----------------1---------------0---------------3-------|
B-|------3---1----------1-----1-----------3---1---------1------1----|
G-|----0---------------2-2-------2------0--------------2-2--------2-|
D-|-------------------(3)-----------------------------(3)-----------|
A-|--3--------------------------------3-----------------------------|
E-|-----------------------------------------------------------------|

Contiune this till fade...
    A chord diagramFF
E-|---------3--------|
B-|----1-------1-----|
G-|--2---2--------2--|
D-|------------------|
A-|------------------|
E-|------------------|

Alright, if you surive and can play all the way up to here, its time
you make some phonecalls and START JAMMING!!!!!!

PS: I have done the whole tabbing by myself without any reference other
than the chord progession done by Masanori OGINO. So don't go around
saying, "HEY I done this tab by myself!!!" Or mail it to someone saying
its your work.

				- Rav -
Give cerdit to those who work hard, work hard to get those cerdits.
ⓘ Guitar tab for 'Half The World Away' by Oasis, a rock band formed in 1991 from Manchester, England. They retired in 2009. Oasis was known for their reflective britpop music.

Almost there ...

Sign in to get your own page with links to favourite songs and more. You are just one click away...

Login with Facebook Login with Google