Log in

One click and you are in

Login with Facebook Login with Google

Why sign up and log in

Guitar Tabs Explorer
Oasis bass tabs for Force of nature

Bass tabs

Oasis - Force of Nature - Bass Line
>From Heathen Chemistry (2002)

Tab by: Richard Beason (Rich_b@hotmail.com)

Standard Tuning, with a bit of overdrive or reverb
Intro
G|-----------------|
D|-----------------|
A|-----------------|
E|-12-----s------0-|


Verse
G|-----------------|-----------------||
D|-----------------|-----------------||
A|--0---0---2---2--|-----------------||
E|-----------------|-2--2-2--0-2-2-2-||

These are the nights...
G|-----------------|-----------------|-----------------|-----------------|
D|-----------------|-----------------|-----------------|-----------------|
A|-----------------|-----------------|-----------------|-----------------|
E|-5-5-5-5-5-5-5-s-|-7-7-7-7-7-7-7-s-|-14-14-14-14-14--|-14-14-14-14-s-0-|


Chorus
G|-----------------|-----------------| |-----------------|-----------------|
D|-----------------|-----------------|x|-----------------|-----------------|
A|--2---2---5---5--|-----------------|3|-0--0-0---5--5-5-|-----------------|
E|-----------------|-3--3-3--3-3-3-3-| |-----------------|-0--0-0---3--3-3-|

Play before going back into verse
G|-----------------|-----------------|
D|-----------------|-----------------|
A|-----------------|-----------------|
E|-3-3-3-3-3-3-3-3-|-2-2-2-2-2-2-2-2-|


Outro
G|-----------------|-----------------||
D|-----------------|---4-4-4-4-4-4-4-||
A|-----------------|-----------------||
E|-0-2-2-2-2-2-2-2-|-0---------------||


_________________________________________________________________

Almost there ...

Sign in to get your own page with links to favourite songs and more. You are just one click away...

Login with Facebook Login with Google