Search tabs and chords

Browse bands and artists

A B C D E F G H I J K L M N O P Q R S T U V W X Y Z #

Log in

[ Register here | Forgot password ]

Guitar Tabs Explorer
Print

Columbia tab by Oasis

Guitar tabs with lyrics

Columbia, written by Liam and Noel Gallagher, performed by Oasis.
Song can be found on the album "Definitely Maybe", and the "white label demo"
version of the song can be found on the UK "Supersonic" single.

Tab Key:

B = bend (7b8 means bend the string at the 7th fret to make approximately
the note that the string would make if it were played at the 8th fret with
no bend)
r = release bend
h = hammer on
p = pull off
x = mute the string with one of your fingers


NOTE: Though most of the song just goes from "A" to "D" to "C", here's how
Noel plays along with those basic chords when the guitar first comes in at
the beginning of the song until the first chorus:

   A				  D		  C		A
e----------------------------------------------------------------------------
B--2------------------------------3-----------------------------2------------
G--2----------------------------2-2-------------2-0-----------0-2------------
D--2----------------------------2-0-------------2-2-----------0-2------------
A--0----------------------------0-0-------------0-3-----------x-0------------
E-------------------------------------------------------------3--------------

Intro
-----

   A				 D	     C                A
e---------------------------------------------------------------------------
B---------------------------------------------------------------------------
G-------------5h7-7b8r7--5-------5------5----5---------5h7-5----------------
D---------5h7---------------5h7-----7---5h7--5-----5h7--------7-------------
A---------------------------------------------------------------------------
E---------------------------------------------------------------------------
                         D	     C
e---------------------------------------------------------------------------
B---------------------------------------------------------------------------
G-----5h7-7b8r7--5--5h7--5------5----5--------------------------------------
D-5h7-----------------------7---5h7--5--------------------------------------
A---------------------------------------------------------------------------
E---------------------------------------------------------------------------

1st Verse
---------
A
There we were, now ...
D		    C
All this confusion, ...
A
There we were, ...
D		    C
All this confusion, ...
Chorus
------
    A
Now I can't tell you the ...
	    D		  C
Because the way I feel is ...
A
I can't tell you ..
	    D		  C
because the way I feel ...
Musical Interlude
-----------------

   A				       D	        C
e---------------------------------------------------------------------------
B---------------------------------------------------------------------------
G--7-----6------------7-----6----------7-----6----------7-----5-------------
D-----7-----7--5h7-------7-----7--5h7-----7-----7--5h7-----7-----7--5h7-----
A---------------------------------------------------------------------------
E---------------------------------------------------------------------------

   A				       D	        C
e---------------------------------------------------------------------------
B---------------------------------------------------------------------------
G--7-----6------------7-----6----------7-----6----------7-----5-------------
D-----7-----7--5h7-------7-----7--5h7-----7-----7--5h7-----7-----7--5h7-----
A---------------------------------------------------------------------------
E---------------------------------------------------------------------------


   A				       D	        C
				     This is confusion, ...
e---------------------------------------------------------------------------
B---------------------------------------------------------------------------
G--7-----6------------7-----6----------7-----6----------7-----5-------------
D-----7-----7--5h7-------7-----7--5h7-----7-----7--5h7-----7-----7--5h7-----
A---------------------------------------------------------------------------
E---------------------------------------------------------------------------

   A				       D	        C
				    This is confusion Am ...
e---------------------------------------------------------------------------
B---------------------------------------------------------------------------
G--7-----6------------7-----6----------7-----6----------7-----5-------------
D-----7-----7--5h7-------7-----7--5h7-----7-----7--5h7-----7-----7--5h7-----
A---------------------------------------------------------------------------
E---------------------------------------------------------------------------

  	   A			       D	      C
				    This is confusion, Am ...
	!e-----------------------------------------------------------------
	!B-----------------------------------------------------------------
guitar	!G-7---6---------7---6---------7---6----------7---5----------------
#2	!D---7---7--5h7----7---7--5h7----7---7--5h7-----7---7--5h7---------
	!A-----------------------------------------------------------------
	!E-----------------------------------------------------------------
	!
	!
	!e--12------12---12-----12----12----12-----12----12---12-----12----
	!B--15b17----b17--b17---15b17--b17---b17---15b17--b17--b17---15b17-
guitar	!G-----------------------------------------------------------------
#3	!D-----------------------------------------------------------------
	!A-----------------------------------------------------------------
	!E-----------------------------------------------------------------

  	   A			       D	      C
				   This is peculiar, ...
									yer
	!e-----------------------------------------------------------------
	!B-----------------------------------------------------------------
guitar	!G-7---6---------7---6---------7---6----------7---5----------------
#2	!D---7---7--5h7----7---7--5h7----7---7--5h7-----7---7--5h7---------
	!A-----------------------------------------------------------------
	!E-----------------------------------------------------------------
	!
	!
	!e--12------12---12-----12----12----12-----12----12---12-----12----
	!B--15b17----b17--b17---15b17--b17---b17---15b17--b17--b17---15b17-
guitar	!G-----------------------------------------------------------------
#3	!D-----------------------------------------------------------------
	!A-----------------------------------------------------------------
	!E-----------------------------------------------------------------

   A
e---------------------------------------------------------------------------
B---------------------------------------------------------------------------
G---------------------------------------------------------------------------
D---------------------------------------------------------------------------
A---------0-0-0--3p0--5p0--3b3.5--0---------0-0-0--3p0--5p0--3b3.5--0-------
E--3b3.5-----------------------------3b3.5----------------------------------

   D				 C
e---------------------------------------------------------------------------
B---------------------------------------------------------------------------
G---------------------------------------------------------------------------
D---------------------------------------------------------------------------
A---------0-0-0--3p0--5p0--3--5--5b6r5----3---------------------------------
E--3b3.5-------------------------------------3--5---------------------------

   A						 D
e------------------------------------------------------------------------
B------------------------------------------------------------------------
G--7b8r7--5h7-5-----5--7--7b8r7--5h7-5-----5--7--7b8r7--5-------------5--
D----------------7----------------------7------------------7------5h7----
A-------------------------------------------------------------5h7--------
E------------------------------------------------------------------------


   C			   A
e-----------------------------------------------------------------------
B-----------------------------------------------------------------------
G--7b8r7--5-------------5--7b8r7--5h7-5-----5--7--7b8r7--5h7-5-----5--7-
D------------7------5h7------------------7----------------------7-------
A---------------5h7-----------------------------------------------------
E-----------------------------------------------------------------------

  D			   C			      A
e---------------------------------------------------------------------------
B---------------------------------------------------------------------------
G-7b8r7--5h7-5-------------5-----5------------5h7-5---7b8r7--5h7-5----------
D---------------7---5h7-------7-----7-----5h7-----------------------7--5h7--
A---------------------------------------------------------------------------
E---------------------------------------------------------------------------

  			  D		        C
e---------------------------------------------------------------------------
B---------------------------------------------------------------------------
G-7b8r7--5h7-5------------7b8r7--5h7-5----------7b8r7--5--7b8r7--5--7b8r7---
D---------------7--5h7------------------7--5h7------------------------------
A---------------------------------------------------------------------------
E---------------------------------------------------------------------------

  A						D		      C
e---------------------------------------------------------------------------
B---------------------------------------------------------------------------
G-7b8r7--5h7-5------------7b8r7--5h7-5----------7b8r7-7-7b8r7-7-7b8r7-7b8r7-
D---------------7--5h7------------------7--5h7------------------------------
A---------------------------------------------------------------------------
E---------------------------------------------------------------------------

            A				    D       C		      A
e---------------------------------------------------------------------------
B---------------------------------------------------------------------------
G-7-7b8r7-7-----------------------------------------------------------------
D-----------------b9.5r9--7---------b9.5r9--7-------9b9.5-------------7-----
A---------------------------------------------------------------------------
E---------------------------------------------------------------------------

			     D        C		     A
e---------------------------------------------------------------------------
B---------------------------------------------------------------------------
G---------------------------------------------------------------------------
D-b9.5r9--7----------b9.5r9--7--------9b9.5----------7------b9.5r9--7-------
A---------------------------------------------------------------------------
E---------------------------------------------------------------------------

	      D       C				       A
e---------------------------------------------------------------------------
B---------------------------------------------------------------------------
G---------------------------------------------------------------------------
D-----b9.5r9--7-------9b9.5r9--9--9b9.5r9--9--9b9.5r9--7--------------------
A---------------------------------------------------------------------------
E---------------------------------------------------------------------------

Questions, comments, corrections, requests to swede@email.unc.edu

Other versions of Columbia

ColumbiaChords

Comments