Log in

One click and you are in

Login with Facebook Login with Google

Why sign up and log in

Guitar Tabs Explorer
Oasis bass tabs for Cigarettes and alcohol

Bass tabs

Oasis - Cigarettes & alcohol
>From Definitely Maybe (1994)

Tab by: Richard Beason (Rich_b@hotmail.com)
Verse
G|-----------------|-----------------|-----------------|-----------------|
D|-----------------|-----------------|-----------------|-----------------|
A|-----------------|-----------------|-----------------|-0---0-0-0-0-----|
E|-0---0-0-0-0-0-0-|-0---0-0-0-0-0-0-|-2---2-2-2-2-2-2-|-------------3-2-|

G|-----------------|-----------------|-----------------|
D|-----------------|-----------------|-----------------|
A|-----------------|-----------------|-----------------|
E|-0---0-0-0-0-0-0-|-0---0-0-0-0-3-2-|-0---0-0-0-5-0-5-|


Chorus-
G|-----------------|-----------------| |-----------------|-----------------|
D|-----------------|-----------2-0---|x|-0---0-0-0-0-0-0-|-----------------|
A|-0---0-0-0-0-0-0-|---------------2-|3|-----------------|-0---0-0-0-0-0-0-|
E|-----------------|-0-0-0-2-3-------| |-----------------|-----------------|

                    (   after 1st chorus only   )
G|-----------------|-----------------| |-----------------|-----------------|
D|-----------------|-0--0-0----------|x|-----------------|-----------------|
A|-----------------|----------0--0-0-|4|-3---3-3-3-3-3-3-|-2---2-2-2-2-2-2-|
E|--0---0---0-2-3--|-----------------| |-----------------|-----------------|


Solo...to end.
G|-----------------|-----------------||
D|-----------------|-0--0-0----------||
A|-----------------|----------0--0-0-||
E|--0---0---0-2-3--|-----------------||

Almost there ...

Sign in to get your own page with links to favourite songs and more. You are just one click away...

Login with Facebook Login with Google