Search tabs and chords

Browse bands and artists

A B C D E F G H I J K L M N O P Q R S T U V W X Y Z #

Log in

[ Register here | Forgot password ]

Guitar Tabs Explorer
Print

Bass tabs :

Aquiesce bass tab by Oasis

Oasis - Aquiesce - The Master Plan

Tab by: Richard Beason (Rich_b@hotmail.com)

Intro/Verse:
G|-----------------|-----------------|---------||
D|-----------------|---------0--0----|---------||
A|---0--0-----0--0-|--0--0-----------|---------||
E|-3-------3-------|---------------3-|-3-3-3-3-||

Pre & post Chorus:
G|-----------------|-----------------|-----------------|
D|-----------------|-----------------|-----------------|
A|-0--0-0----------|-----------------|-----------------|
E|---------3--3-3--|-2--2-2--1--1-1--|-0-0-0-0-0-0-0-0-|

Chorus
G|-----------------|-----------------||
D|-----------------|-----------------||
A|---------3--3-3--|---------0-3-0---||
E|-1--1-1----------|-3--3-3--------3-||

Outro
G|-----------------|-----------------|-----------------|-----------------|
D|-3-3-3-3-3-3-3-3-|-2-2-2-2-2-2-2-2-|-1-1-1-1-1-1-1-1-|-0-0-0-0-0-0-0-0-|
A|-----------------|-----------------|-----------------|-----------------|
E|-----------------|-----------------|-----------------|-----------------|

G|-----------------|
D|-----------------|
A|-----------------|
E|-3---------------|

Comments

Oasis bass tabs for Aquiesce