Search tabs and chords

Browse bands and artists

A B C D E F G H I J K L M N O P Q R S T U V W X Y Z #

Log in

[ Register here | Forgot password ]

Guitar Tabs Explorer
Print

Guitar tabs :

All In The Mind tab by Oasis

Oasis

All in the Mind (Noel Gallagher)
From the album 'Heathen Chemistry

Verse
G      G
G      G
Cadd9  Cadd9
G      G

Chorus
Dsus4  Cadd9  G      G
Dsus4  Cadd9  Cadd9  Cadd9
G

Solo
G--------------------------12-----------------
D-9brbr-9s12-10-10p9h10s12----10p9h10---------
A-------------------------------------10-12-10

G--------------12-------------------------
D-9-10-10b12-r----10-10p9h10-10----------9
A-------------------------------10-10s12--

B-------------15--------------------------------------------------
G-12-14-14b16----12-12-11-11-9-9-9-11-11-9-7-9-7h9-7s5-5s4-4-2-4-0
D-----------------------------------------------------------------
A-----------------------------------------------------------------

G---------------------------------------
D-0h2--s12------10----------------------
A----------12br-----10-12-10-12-10------


Tabbed by Jake Smart

Other versions of All In The Mind

All in The MindChords

Comments

Oasis guitar tabs for All in the mind