Log in

One click and you are in

Login with Facebook Login with Google

Why sign up and log in

Guitar Tabs Explorer
Oasis tabs for A quick peep

Guitar tabs

Oasis, A chord diagramA augmentedA Quick Peep
Written by Andy Bell
>From Heathen Chemistry
Tabbed By Henrik Bjorlo

Chords:

		 EADGBe
F5/C		(xxx56x)
C5/G		(xxx01x)
D5/A		(xxx23x)


Main riff:
-----------------------------------
------3----------------------------
-0h2-----2--0-------0--------------
------------------3-------3--------
-----------------------------------
-----------------------------------


-----------------------------------
------3----------------------------
-0h2-----2--0-------0-----2--------
------------------3----------------
-----------------------------------
-----------------------------------


---------------------------------------------------
------3--------------------------------------------
-0h2-----2--0-------0--------0h2-2-0h2-2-0---------
------------------3-------3-----------------3----0-
----------------------------------------------3----
---------------------------------------------------


F5/C          C5/G D5/A


henrik@oa515.com

Almost there ...

Sign in to get your own page with links to favourite songs and more. You are just one click away...

Login with Facebook Login with Google