Log in

One click and you are in

Login with Facebook Login with Google

Why sign up and log in

Guitar Tabs Explorer
Paul Oakenfold tabs for Ready steady go

Guitar tabs

Riff 1
e--------------|-----------------------------------|
b------4---6---|-----------------------------------|
G--6---4---6---|--6---4---6------------------------|
D--6---2---4---|--6---2---4------------------------|
A--4-----------|--4---2---4------------------------|
Df-------------|-----------------------------------|


Riff 2
e--------------------------|-------------------------|
b--------------------------|-------------------------|
G--------------------------|-------------------------|
D--------------------------|-------------------------|
A--------------------------|----4---4--4--4---6--7---|
Df---0--0-0-0--2--0--3--0--|-------------------------|


Riff 3
e-----------------------|-------------------------|
b---9--9--7--9--7///4---|--4--4h5--4--4h5--4h5--4h5-|
G-----------------------|-------------------------|
D-----------------------|-------------------------|

ⓘ Guitar tab for 'Ready Steady Go' by Paul Oakenfold, a male trance artist from London, England. Paul Oakenfold was born in 1963. Paul Oakenfold is known for his epic electronic music.

Almost there ...

Sign in to get your own page with links to favourite songs and more. You are just one click away...

Login with Facebook Login with Google