Log in

One click and you are in

Login with Facebook Login with Google

Why sign up and log in

Guitar Tabs Explorer
O P M chords for Dealerman

Guitar chords

++++++++++++++++++++++++++++++++++

    O P M  -  "Dealerman"

++++++++++++++++++++++++++++++++++
Album: Menace to Sobriety
++++++++++++++++++++++++++++++++++

~ whenever is clever ;)


  A chord diagramE5E5      A chord diagramG+G  A chord diagramA augmentedA    A chord diagramE5E5

--0---|-----------0-----
--0---|-----------0-----
------|---0--2----------
--2---|---0--2----2-----
--2---|---2--0----2-----
--0---|---3-------0-----


--0---|------------0-----
--0---|------------0-----
------|---4--6-----------
--2---|---5--7-----2-----
--2---|---5--7-----2-----
--0---|---3--5-----0-----



CHORUS

   A chord diagramC majorC      A chord diagramBB       em
---------------|---0-----
---------------|---0-----
---5------4----|---0-----
---5------4----|---2-----
---3------2----|---2-----
---------------|---0-----


   A chord diagramC majorC      A chord diagramB7B7      em
---------------|---0-----
---1------0----|---0-----
---0------2----|---0-----
---2------1----|---2-----
---3------2----|---2-----
---------------|---0-----


moshbabyHR<jonadean@hotmail.com> 2002/01

Almost there ...

Sign in to get your own page with links to favourite songs and more. You are just one click away...

Login with Facebook Login with Google