Log in

One click and you are in

Login with Facebook Login with Google

Why sign up and log in

Guitar Tabs Explorer
Paolo Nutini bass tabs for Pencil full of lead

Pencil Full Of Lead bass tab by Paolo Nutini

Paolo Nutini bass tabs for Pencil full of lead

Bass tabs

Intro 1 (1234....)
|-------4-5-4-----|-----------------|-----------------|-----------------|-----------------|-----------------|
|---4-7-------7-4-|---4-7-4---------|-------2-3-2-----|---4-7-4---------|-------4-5-4-----|---4-5-6-7-6-5-4-|
|-5---------------|-5-------5-3-2-0-|---2-5-------5-2-|-5-------5-3-2-0-|---4-7-------7-4-|-5---------------|
|-----------------|-----------------|-3---------------|-----------------|-5---------------|-----------------|

Verse 1 (I got a sheet for my bed)
|-----------------|-----------------|-----------------|-----------------|-----------------|-----------------|
|-----------4-5---|------------034--|-5------5--------|---4---7--4------|--------5-4------|---4-5-6-7-6-5-4-|
|-5-------5-------|-5--------5------|----5-------2-3--|-5-----------5---|---4-7------7----|-5---------------|
|-----5-----------|-----5-----------|-----------------|-----------------|-5---------------|-----------------|
(I got legs on my chairs)
|-------4-5-4-----|-------4-5-4-----|-----------------|-----------------|-----------------|-----------------|
|---4-7-------7-4-|---4-7-------7-4-|-------2-3-2-----|---4-7-4---------|-----------------|---4-5-6-7-6-5-4-|
|-5---------------|-5---------------|---2-5-------5-2-|-5-------5-3-2-0-|---4-7-4---2-3-4-|-5---------------|
|-----------------|-----------------|-3---------------|-----------------|-5-------3-------|-----------------|
(harmonica part...)
|-----------------|-------------5---|-----------------|-----------------|-----------------|-----------------|
|-----------474---|------------4-4--|-5------5--------|-----------------|-----------------|---4-5-6-7-6-5-4-|
|-5-------5-------|-5--------5------|----5-------2-3--|-5----5----------|-----7----2-3----|-5---------------|
|-----5-----------|-----5-----------|-----------------|---5----8-7------|-5------3--------|-----------------|
(I got a nice guitar)
|-------4-5-4-----|-----------------|-----------------|-----------------|-----------------|-----------------|
|---4-7-------7-4-|-----------4-7-4-|-------2-3-2-----|-----------4-7-4-|-----------------|---4-5-6-7-6-5-4-|
|-5---------------|-5-------5-------|---2-5-------5-2-|-5-------5-------|---4-7-4---2-5-2-|-5---------------|
|-----------------|---7-5-7---------|-3---------------|---7-5-7---------|-5-------3-------|-----------------|
(Harmonica solo...)
|-------4-5-4-5-6-|-7-6-5-4---------|---4-7-4---------|-----------------|-----------------|-----------------|
|---4-7-----------|---------------2-|-5-------5-------|---4-7-4---------|-----------------|---4-5-6-7-6-5-4-|
|-5---------------|-----------2-5---|-----------7-5-7-|-5-------5-------|---4-7-4---2-5-2-|-5---------------|
|-----------------|---------3-------|-----------------|-----------7-5-7-|-5-------3-------|-----------------|
(best of all...)
|-----------------|-----------------|-----------------|-----------------|-----------------|-----------------|
|-----------------|-------------45--|-5------5--------|---------45------|-----------------|----45-7---------|
|-5-------5-------|-5--------5------|----5-------2-3--|-5-----5---------|-----7-----23----|-5-------------2-|
|-----5-------5---|-----5-----------|-----------------|----5------------|-5-------3-------|----------3-5----|
(Sax Solo)
|-------4-5-4-5-6-|-7-6-5-4---------|---4-7-4---------|-----------------|-----------------|-----------------|
|---4-7-----------|---------------2-|-5-------5-------|---4-7-4---------|-----------------|-----------------|
|-5---------------|-----------2-5---|-----------7-5-7-|-5-------5-------|---4-7-4---2-5-2-|-5-4-3-2-1-0-----|
|-----------------|---------3-------|-----------------|-----------7-5-7-|-5-------3-------|-------------4---|
(best of all)
|-----------------|-----------------|-----------------|-----------------|-----------------|-----------------|
|-----------4-5---|------------034--|-5------5---54---|------------45---|-----------------|----45--7--------|
|-5-------5-------|-5--------5------|----5---------7--|-5--------5------|-----7----2-3----|--5------------2-|
|-----5-----------|-----5-----------|-----------------|------5----------|--5-----3--------|-----------3-5---|

|-----------------|-----------------|-------4-5-4-5-6-|-7-6-5-4---------|-----------------|-----------------|
|-----------------|---45--7---------|---4-7-----------|------------4----|-----------------|-----------------|
|---4-7-4---2-5-2-|-5-----------2---|-5---------------|----------5------|-5---------------|-----------------|
|-5-------3-------|---------3-5-----|-----------------|--------------5--|-----------------|-----------------|

Almost there ...

Sign in to get your own page with links to favourite songs and more. You are just one click away...

Login with Facebook Login with Google