Log in

One click and you are in

Login with Facebook Login with Google

Why sign up and log in

Guitar Tabs Explorer
Paolo Nutini bass tabs for Better man

Bass tabs

Chorus 1:

  at 0:54
G|----------------------|----------------------|----------------------|----------------------|
D|----------------------|----------------------|----------------------|----------------------|
A|----------------------|----------------------|----------------------|----------------------|
E|-5-------0-5--5-----0-|-5-------0-5--5-----0-|-3-------0-3--3-----0-|-3-------0-3--3--0-3--|

G|----------------------|----------------------|----------------------|----------------------|
D|----------------------|----------------------|-5---------5--5-------|-5---------5--5-------|
A|--------------------3-|-5-------0-5--5---5-7-|---------5--------5-7-|---------5-------7-5--|
E|-5-------0-5--5-------|----------------------|----------------------|----------------------|

Verse 2:

G|----------------------|----------------------|----------------------|----------------------|
D|----------------------|----------------------|----------------------|----------------------|
A|--------------------5-|--------------------5-|-5---------5--5-------|-5---------5--5---5/7-|
E|-3---------3--3-------|-3---------3--3-------|---------5----------5-|---------5------------|

G|----------------------|----------------------|----------------------|-----------------------|
D|----------------------|----------------------|-5---------5--5-------|-5-------x-5--5--------|
A|--------------------3-|-5---------5--5---5h7-|------------------7-5-|-----------------7p5---|
E|-5-------0-5--5-------|---------5------------|----------------------|---------------------7\|

G|----------------------|----------------------|----------------------|----------------------|
D|----------------------|----------------------|----------------------|---------------7--7---|
A|----------------------|--------------------3-|-5---------5--5-------|-5---------5/7------7-|
E|-3---------3--3-----0-|-3-------0-3--3---3---|---------5----------5-|----------------------|

G|----------------------|----------------------|----------------------|----------------------|
D|----------------------|----------------------|----------------------|-5--------------------|
A|--------------2-----3-|-5---------5--5---5h7-|-------------------/5-|----------------------|
E|-5-------0-5----------|---------5------------|-3---------3--3-------|-----------3--3-----0-|


Chorus 2:

  at 0:54
G|----------------------|----------------------|----------------------|----------------------|
D|----------------------|----------------------|----------------------|----------------------|
A|----------------------|----------------------|----------------------|----------------------|
E|-5-------0-5--5-----0-|-5-------0-5--5-----2-|-3-------3-3--3-----2-|-3-------3-3--3----4--|

G|----------------------|----------------------|----------------------|----------------------|
D|----------------------|----------------------|-5---------5--5-------|----------------------|
A|--------------------3-|-5-------0-5--5---5h7-|---------5--------7p5-|-----2-2-3---4-4-5----|
E|-5-------0-5--5---5---|----------------------|----------------------|-3-3----------------2-|



Bridge:
G|-----------------------|---------------------|-----------------------|---------------------|
D|-----------------------|-5-------------------|-----------------------|----------7----------|
A|---------------------5-|--------5-------3--4-|-5----5-------------2--|-5------5----5---5h7-|
E|-3-------3-3--3--5/7---|----------3---3------|-----------2--2--5-----|---------------------|

G|-----------------------|---------------------|-----------------------|---------------------|
D|-----------------------|-------------------4-|-5---------5-----------|---------------------|
A|---------------------4-|-5--------5--7--8----|--------------7---5-5--|------2--2-3--5/7-5--|
E|-5----5---5-5--7--8----|--------5------------|-----------------------|-3-------------------|

G|-----------------------|---------------------|-----------------------|---------------------|
D|-5---------------------|---------------------|-----------------------|--------------7------|
A|----------7--7p5-------|---------------2-3-4-|-5----5---x------------|-5---------5----5--7-|
E|------------------7--5-|-3------2-3--3-------|------------2--3--4--5-|---------5-----------|

G|-----------------------|-----------------------|-------------------------|---------------------|
D|------7-----7----------|-------------------5---|-5----------5--5---------|---------------------|
A|----------7---7--------|-5---0h5---0h5-5h7---7-|----------5------7-5-----|---------------------|
E|-5--------------5----8-|-----------------------|---------------------7\5-|-3------3-3--0--1--2-|


Last Verse:
G|----------------------|----------------------|----------------------|----------------------|
D|-----------5--5-------|-5---------5--5---5/7-|----------------------|----------------------|
A|---------5----------5-|---------5------------|-5---------5--5-------|-5---------5--5---5/7-|
E|-3--------------------|----------------------|---------5--------5h7-|---------5------------|

G|----------------------|----------------------|----------------------|-----------------------|
D|----------------------|----------------------|-5---------5--5-------|-5-------x-5--5--------|
A|--------------------3-|-5---------5--5---5h7-|---------5--------7-5-|----------------7--5---|
E|-5-------0-5--5-------|---------5------------|----------------------|---------------------7\|

G|----------------------|----------------------|----------------------|----------------------|
D|----------------------|----------------------|----------------------|----------------------|
A|----------------------|--------------------3-|-5---------5--5-----7-|-5---------5--5---5/7-|
E|-3-------0-3--3-----0-|-3-------0-3--3---3---|---------5------------|---------5------------|

G|----------------------|----------------------|----------------------|----------7------------|
D|----------------------|----------------------|-5---------5--5-------|-5----7/9----5---------|
A|--------------------3-|-5---------5--5---5h7-|---------5--------5/7-|---------------7---5---|
E|-5-------0-5--5-------|---------5------------|----------------------|---------------------3-|



Outro Chorus:
G|----------------------|----------------------|----------------------|----------------------|
D|------7---------------|----------------------|-5---------5--5-------|----------------------|
A|---------7------------|-5---------5--5--7--8-|---------5----------5-|----------5--5--5-----|
E|-5---------5--7-----8-|---------0------------|----------------------|-3--------------------|

G|----------------------|----------------------|----------------------|----------------------|
D|----------------------|----------------------|----------------------|----------------------|
A|--------------------4-|-5-------0-5--5-------|----------------------|-5------5-5--5--------|
E|-5-------0-5--7--8----|-------------------2--|-3-------3-5--7---8---|------------------3---|

G|---------------------|----------------------|-----------------------|----------------------|
D|------7--------------|----------------------|-5---------5--5--------|-5--------5--5--------|
A|---------------------|-5---------5--5---5h7-|---------5---------5h7-|-----------------5h7--|
E|-5---------5--7---8--|---------5------------|-----------------------|----------------------|

G|-------------------|-----------------------|
D|-5-------5--5------|-5---------------------|
A|---------------5h7-|-----------------------|
E|-------------------|-----------------------|


************************************
KEY

| h  Hammer-on
| p  Pull-off
| /  Slide up
| \  Slide down

Almost there ...

Sign in to get your own page with links to favourite songs and more. You are just one click away...

Login with Facebook Login with Google