Log in

One click and you are in

Login with Facebook Login with Google

Why sign up and log in

Guitar Tabs Explorer
Justin Nozuka guitar chords for Unwoken dreams kind of everything

Unwoken Dreams Kind Of Everything chords by Justin Nozuka

Justin Nozuka guitar chords for Unwoken dreams kind of everything

Guitar chords with lyrics

Intro:

e|-5-----------|-3-----------|-------------|-------------|  4 X
C|---0---------|---0---------|-4-----4-----|-2----2------|
G|------4------|------4------|----4--------|---4---------|
D|-0-----------|-0-----------|-0-----------|-0-----------|
A|-------------|-------------|-------------|-------------|
E|-------------|-------------|-------------|-------------|
Vers 1:

e|-5-----------|-3-----------|-------------|-------------|  8 X
C|---0---------|---0---------|-4-----4-----|-2----2------|
G|------4------|------4------|----4--------|---4---------|
D|-0-----------|-0-----------|-0-----------|-0-----------|
A|-------------|-------------|-------------|-------------|
E|-------------|-------------|-------------|-------------|
  There is a King who lives on the top of the hill.
  There is a king who had everything
  Led by a star, the light in the sky.
  He can't see it



e|10-----------|-5-----------|-8-----------|-3-----------|-5-----------|-5-----------|-5-----------|
C|-------0-----|----0--------|-------0-----|----0--------|----0--------|----0--------|----0--------|
G|----9--------|-------4-----|----7--------|-------2-----|-------4-----|-------4-----|-------4-----|
D|-0-----------|-0-----------|-0-----------|-0-----------|-0-----------|-0-----------|-0-----------|
A|-------------|-------------|-------------|-------------|-------------|-------------|-------------|
E|-------------|-------------|-------------|-------------|-------------|-------------|-------------|


e|-5-----------|  2 X
C|---0---------|
G|------4------|
D|-0-----------|
A|-------------|
E|-------------|



Vers 2:

e|-5-----------|-3-----------|-------------|-------------|  8 X
C|---0---------|---0---------|-4-----4-----|-2----2------|
G|------4------|------4------|----4--------|---4---------|
D|-0-----------|-0-----------|-0-----------|-0-----------|
A|-------------|-------------|-------------|-------------|
E|-------------|-------------|-------------|-------------|
  There is a man who lives by the river.
  He is a man surrounded by light.
  She is alone bathing in the river.
  He watches her.



e|10-----------|-5-----------|-8-----------|-3-----------|-5-----------|-5-----------|-5-----------|
C|-------0-----|----0--------|-------0-----|----0--------|----0--------|----0--------|----0--------|
G|----9--------|-------4-----|----7--------|-------2-----|-------4-----|-------4-----|-------4-----|
D|-0-----------|-0-----------|-0-----------|-0-----------|-0-----------|-0-----------|-0-----------|
A|-------------|-------------|-------------|-------------|-------------|-------------|-------------|
E|-------------|-------------|-------------|-------------|-------------|-------------|-------------|



e|-5-----------|  2 X
C|---0---------|
G|------4------|
D|-0-----------|
A|-------------|
E|-------------|





Chorus:

e|-2-----------|-2-----------|-2-----------|-2-----------|
C|----2--------|----2--------|----2--------|----2--------|
G|-------2-----|-------2-----|-------2-----|-------2-----|
D|-0-----------|-0-----------|-0-----------|-0-----------|
A|-------------|-------------|-------------|-------------|
E|-------------|-------------|-------------|-------------|
                              Diamond   in   the



e|-2-----------|-2-----------|-2-----------|-2-----------|
C|----1--------|----1--------|----1--------|----1--------|
G|-------2-----|-------2-----|-------2-----|-------2-----|
D|-0-----------|-0-----------|-0-----------|-0-----------|
A|-------------|-------------|-------------|-------------|
E|-------------|-------------|-------------|-------------|
  Sky



e|-2-----------|-2-----------|-2-----------|-2-----------|
C|----0--------|----0--------|----0--------|----0--------|
G|-------2-----|-------2-----|-------2-----|-------2-----|
D|-0-----------|-0-----------|-0-----------|-0-----------|
A|-------------|-------------|-------------|-------------|
E|-------------|-------------|-------------|-------------|
                              Will   she   be


e|-3-----------|-3-----------|-3-----------|-3-----------|
C|----2--------|----2--------|----2--------|----2--------|
G|-------0-----|-------0-----|-------0-----|-------0-----|
D|-------------|-------------|-------------|-0-----------
A|-------------|-------------|-------------|-------------|
E|-3-----------|-3-----------|-3-----------|-3-----------|
  mine



e|-2-----------|-2-----------|-2-----------|-2-----------|
C|----2--------|----2--------|----2--------|----2--------|
G|-------2-----|-------2-----|-------2-----|-------2-----|
D|-------------|-------------|-------------|-------------|
A|-2-----------|-2-----------|-2-----------|-2-----------|
E|-------------|-------------|-------------|-------------|
                              Lead  her  through  the


e|-0-----------|-0-----------|-0-----------|-0-----------|
C|----1--------|----1--------|----1--------|----1--------|
G|-------2-----|-------2-----|-------2-----|-------2-----|
D|-------------|-------------|-------------|-------------|
A|-0-----------|-0-----------|-0-----------|-0-----------|
E|-------------|-------------|-------------|-------------|
  night                                     She   is


e|-5-----------|-3-----------|-------------|-------------|
C|---0---------|---0---------|-4-----4-----|-2----2------|
G|------4------|------4------|----4--------|---4---------|
D|-0-----------|-0-----------|-0-----------|-0-----------|
A|-------------|-------------|-------------|-------------|
E|-------------|-------------|-------------|-------------|
  mine


e|-5-----------|-3-----------|-------------|-------------|
C|---0---------|---0---------|-4-----4-----|-2----2------|
G|------4------|------4------|----4--------|---4---------|
D|-0-----------|-0-----------|-0-----------|-0-----------|
A|-------------|-------------|-------------|-------------|
E|-------------|-------------|-------------|-------------|



Vers 3:

e|-5-----------|-3-----------|-------------|-------------|  8 X
C|---0---------|---0---------|-4-----4-----|-2----2------|
G|------4------|------4------|----4--------|---4---------|
D|-0-----------|-0-----------|-0-----------|-0-----------|
A|-------------|-------------|-------------|-------------|
E|-------------|-------------|-------------|-------------|
  Over the hill and beyond the river.
  Seven unwoken dreams are there.
  When she awakes she dreams more then ever.
  He dreams with her.



e|10-----------|-5-----------|-8-----------|-3-----------|-5-----------|-5-----------|-5-----------|
C|-------0-----|----0--------|-------0-----|----0--------|----0--------|----0--------|----0--------|
G|----9--------|-------4-----|----7--------|-------2-----|-------4-----|-------4-----|-------4-----|
D|-0-----------|-0-----------|-0-----------|-0-----------|-0-----------|-0-----------|-0-----------|
A|-------------|-------------|-------------|-------------|-------------|-------------|-------------|
E|-------------|-------------|-------------|-------------|-------------|-------------|-------------|


e|-5-----------|  2 X
C|---0---------|
G|------4------|
D|-0-----------|
A|-------------|
E|-------------|


End Chorus:

e|-2-----------|-2-----------|-2-----------|-2-----------|
C|----2--------|----2--------|----2--------|----2--------|
G|-------2-----|-------2-----|-------2-----|-------2-----|
D|-0-----------|-0-----------|-0-----------|-0-----------|
A|-------------|-------------|-------------|-------------|
E|-------------|-------------|-------------|-------------|
                              Diamond   in   the


e|-2-----------|-2-----------|-2-----------|-2-----------|
C|----1--------|----1--------|----1--------|----1--------|
G|-------2-----|-------2-----|-------2-----|-------2-----|
D|-0-----------|-0-----------|-0-----------|-0-----------|
A|-------------|-------------|-------------|-------------|
E|-------------|-------------|-------------|-------------|
  Sky


e|-2-----------|-2-----------|-2-----------|-2-----------|
C|----0--------|----0--------|----0--------|----0--------|
G|-------2-----|-------2-----|-------2-----|-------2-----|
D|-0-----------|-0-----------|-0-----------|-0-----------|
A|-------------|-------------|-------------|-------------|
E|-------------|-------------|-------------|-------------|
                              Will   she   be


e|-3-----------|-3-----------|-3-----------|-3-----------|
C|----2--------|----2--------|----2--------|----2--------|
G|-------0-----|-------0-----|-------0-----|-------0-----|
D|-------------|-------------|-------------|-0-----------|
A|-------------|-------------|-------------|-------------|
E|-3-----------|-3-----------|-3-----------|-3-----------|
  mine


e|-2-----------|-2-----------|-2-----------|-2-----------|
C|----2--------|----2--------|----2--------|----2--------|
G|-------2-----|-------2-----|-------2-----|-------2-----|
D|-------------|-------------|-------------|-------------|
A|-2-----------|-2-----------|-2-----------|-2-----------|
E|-------------|-------------|-------------|-------------|
                              Lead  her  through  the


e|-0-----------|-0-----------|-0-----------|-0-----------|
C|----1--------|----1--------|----1--------|----1--------|
G|-------2-----|-------2-----|-------2-----|-------2-----|
D|-------------|-------------|-------------|-------------|
A|-0-----------|-0-----------|-0-----------|-0-----------|
E|-------------|-------------|-------------|-------------|
  night                                     She   is


e|-2-----------|-2-----------|-2-----------|-2-----------|
C|----2--------|----2--------|----2--------|----2--------|
G|-------2-----|-------2-----|-------2-----|-------2-----|
D|-0-----------|-0-----------|-0-----------|-0-----------|
A|-------------|-------------|-------------|-------------|
E|-------------|-------------|-------------|-------------|
  blind


e|-2-----------|-2-----------|-2-----------|-2-----------|
C|----1--------|----1--------|----1--------|----1--------
G|-------2-----|-------2-----|-------2-----|-------2-----|
D|-0-----------|-0-----------|-0-----------|-0-----------|
A|-------------|-------------|-------------|-------------|
E|-------------|-------------|-------------|-------------|



e|-2-----------|-2-----------|-2-----------|-2-----------|
C|----0--------|----0--------|----0--------|----0--------|
G|-------2-----|-------2-----|-------2-----|-------2-----|
D|-0-----------|-0-----------|-0-----------|-0-----------|
A|-------------|-------------|-------------|-------------|
E|-------------|-------------|-------------|-------------|



e|-3-----------|-3-----------|-3-----------|-3-----------|
C|----2--------|----2--------|----2--------|----2--------|
G|-------0-----|-------0-----|-------0-----|-------0-----|
D|-------------|-------------|-------------|-0-----------|
A|-------------|-------------|-------------|-------------|
E|-3-----------|-3-----------|-3-----------|-3-----------|



e|-2-----------|-2-----------|-2-----------|-2-----------|
C|----2--------|----2--------|----2--------|----2--------|
G|-------2-----|-------2-----|-------2-----|-------2-----|
D|-------------|-------------|-------------|-------------|
A|-2-----------|-2-----------|-2-----------|-2-----------|
E|-------------|-------------|-------------|-------------|
                              Lead  her  through  the


e|-0-----------|-0-----------|-0-----------|-0-----------|
C|----1--------|----1--------|----1--------|----1--------|
G|-------2-----|-------2-----|-------2-----|-------2-----|
D|-------------|-------------|-------------|-------------|
A|-0-----------|-0-----------|-0-----------|-0-----------|
E|-------------|-------------|-------------|-------------|
  night                                     She   is



e|-5-----------|-3-----------|-------------|-------------|  4 X
C|---0---------|---0---------|-4-----4-----|-2----2------|
G|------4------|------4------|----4--------|---4---------|
D|-0-----------|-0-----------|-0-----------|-0-----------|
A|-------------|-------------|-------------|-------------|
E|-------------|-------------|-------------|-------------|
  blind



e|-5p3p0h3-----|-2-----------|
G|-------------|-2-----------|
G|-------------|-2-----------|
D|-0-----------|-0-----------|
A|-------------|-------------|
E|-------------|-------------|

↓ Add and view comments below ↓

What do you think about this song and these chords?

Add your comments, questions, rant or a thumbs up below.

Almost there ...

Sign in to get your own page with links to favourite songs and more. You are just one click away...

Login with Facebook Login with Google