Log in

One click and you are in

Login with Facebook Login with Google

Why sign up and log in

Guitar Tabs Explorer
Justin Nozuka guitar tabs for No heaven

Guitar tabs with lyrics

INTRO
e|---------|---------|---------|---------|---------|---------|---------|-----------|
B|-----3-3-|-----3---|-----5---|---3-3---|-----3---|---3-3---|-----3---|---3h5-3---|
G|----0-0--|----5----|----4----|---------|----2----|---------|----0----|------4-4P0|
D|---2-----|---4-----|---5-----|---------|---4-----|---------|---2-----|-----------|
A|---------|---------|---------|---------|---------|---------|---------|-----------|
E|---------|---------|---------|---------|---------|---------|---------|-----------|

e|---------|---------|---------|---------|---------|---------|---------|-----------|
B|-----0---|-----3---|-----5---|---3-3---|-----3---|---3-3---|-----3---|---3h5-3---|
G|----0-0--|----5----|----4----|---------|----2----|---------|----0----|------4-4P0|
D|---2-----|---4-----|---5-----|---------|---4-----|---------|---2-----|-----------|
A|---------|---------|---------|---------|---------|---------|---------|-----------|
E|---------|---------|---------|---------|---------|---------|---------|-----------|

e|---------|---------|---------|---------|------3--|----0-2-2|
B|-----0---|-----0---|-----3---|-----3---|-----3-3-|---0-----|
G|----0-0--|----0-0--|----0-0--|----0-0--|----0----|--2------|
D|---2-----|---------|---------|---------|---------|---------|
A|---------|---5-----|---3-----|---2-----|---------|---------|
E|---------|---------|---------|---------|---3-----|-2-------|


VERSE
e|---------|---------|---------|---------|---------|---------|---------|-----------|
B|-----0---|-----3---|-----5---|---3-3---|-----3---|---3-3---|-----3---|---3h5-3---|
G|----0-0--|----5----|----4----|---------|----2----|---------|----0----|------4-4P0|
D|---2-----|---4-----|---5-----|---------|---4-----|---------|---2-----|-----------|
A|---------|---------|---------|---------|---------|---------|---------|-----------|
E|---------|---------|---------|---------|---------|---------|---------|-----------|
  young...  hand me the gun                on with it         off with it

e|---------|---------|---------|---------|---------|---------|---------|-----------|
B|-----0---|-----3---|-----5---|---3-3---|-----3---|---3-3---|-----3---|---3h5-3---|
G|----0-0--|----5----|----4----|---------|----2----|---------|----0----|------4-4P0|
D|---2-----|---4-----|---5-----|---------|---4-----|---------|---2-----|-----------|
A|---------|---------|---------|---------|---------|---------|---------|-----------|
E|---------|---------|---------|---------|---------|---------|---------|-----------|
 im burning strong like the sun          i do believe         it's time for me

e|---------|---------|---------|---------|---------|---------|
B|-----0---|-----3---|-----5---|---3-3---|-----3---|---3-3---|
G|----0-0--|----5----|----4----|---------|----2----|---------|
D|---2-----|---4-----|---5-----|---------|---4-----|---------|
A|---------|---------|---------|---------|---------|---------|
E|---------|---------|---------|---------|---------|---------|
  ohhhh                                  it's gonna hurt then I'm

e|---------|---------|---------|---------|------3--|----0-2-2|
B|-----0---|-----0---|-----3---|-----3---|-----3-3-|---0-----|
G|----0-0--|----0-0--|----0-0--|----0-0--|----0----|--2------|
D|---2-----|---------|---------|---------|---------|---------|
A|---------|---5-----|---3-----|---2-----|---------|---------|
E|---------|---------|---------|---------|---3-----|-2-------|
  free                                                and I'll be in heaven

CHORUS
  A chord diagramG MajorG
  where the angels

                  A chord diagramA minorAm
  are flying over water

       A chord diagramB minorBm
  I'm free

                    A chord diagramG MajorG
  there will be no darkness no pain no pain

LEAD IN
e|---- --|-------|-------|-0-----|
B|----1--|----1--|----1--|--1----|
G|---2---|---0---|---0---|---0---|
D|--2----|--0----|--2----|-------|
A|-0-----|-2-----|-3-----|-------|
E|-------|-------|-------|-------|


VERSE


CHORUS

LEAD IN
 all the anger will be gone
 all depression will be gone
 only love from everyone
 soon as I pass one
 ten nine eight
 seven six five
 four three two

 A chord diagramA minorAm
 ONE

 A chord diagramA minorAm
 OH brother what have you done        (2x)

                    A chord diagramG MajorG
 what if there's no heaven and you find yourself alone

                     A chord diagramB minorBm
 walking through the tunnel brother everyone is gone

 A chord diagramG MajorG

LEAD IN

Betrayed by the one
your still conscious in your grave
one that`s been betrayed
what about then
What if there`s no heaven

↓ Add and view comments below ↓

What do you think about this song and these tabs?

Add your comments, questions, rant or a thumbs up below.

Almost there ...

Sign in to get your own page with links to favourite songs and more. You are just one click away...

Login with Facebook Login with Google