Log in

One click and you are in

Login with Facebook Login with Google

Why sign up and log in

Guitar Tabs Explorer
Novembers Doom guitar tabs for Leaving this

Guitar tabs

---------1---------------1--------------------|
-------3---3-----------3---3------------------|
-----2-------2-------2-------2----------------|
---0---------------0--------------------------|
----------------------------------------------|
----------------------------------------------|

--------1--------------1----------------------|
------3---3----------3---3--------------------|
----3-------3------3-------3------------------|
--0--------------0----------------------------|
----------------------------------------------|
----------------------------------------------|

---------0---------------------0--------------|
-----------1---------------------1------------|
------0------0--------------0------0----------|
----2---------------------2-------------------|
--3---------------------3---------------------|
----------------------------------------------|


-------0------1-----0-------------------------|
-----3---3------3-----3-----------------------|
---3-------3------3-----3---------------------|
-3--------------------------------------------|
----------------------------------------------|
----------------------------------------------|

A chord diagramDmDm  A chord diagramBB              A chord diagramC majorC                 A chord diagramA augmentedA
    For Many Years you've been my life
...



Chorus:

-------------------------------------------------------------|
-------------------------------------------------------------|
---7--7-7-7-------------------------------------------7-7----|
---7--7-7-7---8--8-8-8---11--11-11-11----7--7--11-11--7-7----|
---5--5-5-5---8--8-8-8---11--11-11-11----7--7--11-11--5-5----|
--------------6--6-6-6----8---8--8--8----5--5---8--8---------|


After the intro, those chords (dm,b,c,a) you can play them like riffs.. it sounds
better.. try it!
And I set part: whole song :) its not. i can't tab it whole :D Its my first tab so if I

Almost there ...

Sign in to get your own page with links to favourite songs and more. You are just one click away...

Login with Facebook Login with Google