Log in

One click and you are in

Login with Facebook Login with Google

Why sign up and log in

Guitar Tabs Explorer
Heather Nova bass tabs for Walk this world

Bass tabs with lyrics

Key D
https://www.youtube.com/watch v=ji73VzXyGKE


Intro:
   .          . .         . .      . .         .         . .         . .     . .
G|----------7--------7-|---------7---------7-|---------7---------7-|-------7---------7h9-|
D|------7h9------7h9---|-----7h9-------7h9---|------7h9------7h9---|----7h9------7h9-----|
A|-7-7h9------6-6------|--5-5------4-4-------|-7-7h9-----6-6-------|-5-5-----4-4---------|
E|---------------------|---------------------|---------------------|---------------------|
                                                                                    I have
Verse 1:
   . .        . .         . .      . .         .  .      . .         . .     . .
G|----------7--------7-|---------7---------7-|---------7---------7-|-------7---------7---|
D|------7h9------7h9---|-----7h9-------7h9---|------7h9------7h9---|----7h9------7h9-----|
A|-7-7--------6-6------|--5-5------4-4-------|-7-7-------6-6-------|-5-5-----4-4---------|
E|---------------------|---------------------|---------------------|---------------------|
   slept     winter and   green    slow. I     watched   find the    hidden  snow.  I have
   beside the       the   is growing    have   you       places      by the


Pre-Chorus:
   .   .     .    .      .   .     .   .               .        .
G|---------------------|---------------------|---------------------|---------------------|
D|-----10-10\----10-10\|-----9--9\-----9--9\-|---------5-7-5h7-----|---------------------|
A|-3-3/------3-3/------|-2-2/------2-2/------|-5h7-5h7----------5--|---7-----------------|
E|---------------------|---------------------|---------------------|---------------0--2--|
   tripped   valley      blue      see, I want  come     walk          me.         With the
    into a    that is    till you can   you to           this world with


Chorus:
    .
G|---------------------|---------------------|---------------------|---------------------|
D|---------------------|---------------------|---------------------|---------------------|
A|------------3-3--3---|--5------------------|------------3-3--3---|-5--5\7-5--5--7------|
E|--3-3--3-------------|-----3--2--0---0-2---|--3-3--3-------------|----------------0-2--|
    light in  eyes         it's hard to see     Holding on and on    til we believe. With the
        our
                                               .   .     .    .      .   .     .   .
G|---------------------|---------------------|---------------------|---------------------|
D|---------------------|---------------------|-----10-10/----10-10/|-----9--9/-----9--9/-|
A|------------3-3--3---|--5------------------|-3-3\------3-3\------|-2-2\------2-2/------|
E|--3-3--3-------------|-----3--2--0---0-0---|---------------------|---------------------|
    light in  eyes         it's hard to see      I'm not touched     aching to be  I want you to
        our                                               but I'm
G|---------------------|---------------------|
D|---------5-7-5h7--7/-|--2------------------|
A|-5h7-5h7-------------|---------------------|
E|---------------------|----------------19/--|
   come      walk this    me.           And I'm
             world with

Verse 2:
   . .        . .         . .      . .         .  .      . .         . .     . .
G|----------7--------7-|---------7---------7-|---------7---------7-|-------7---------7---|
D|------7h9------7h9---|-----7h9-------7h9---|------7h9------7h9---|----7h9------7h9-----|
A|-7-7--------6-6------|--5-5------4-4-------|-7-7-------6-6-------|-5-5-----4-4---------|
E|---------------------|---------------------|---------------------|---------------------|
   sucked in  wonder      fucked   lies, And   dig a     lie in      build   fly.    And I
   by the     and I'm     up by the        I   hole to     and I     some wings to


Pre-Chorus:
   .   .     .    .      .   .     .   .               .        .
G|---------------------|---------------------|---------------------|---------------------|
D|-----10-10/----10-10/|-----9--9/-----9--9\-|---------5-7-5h7-----|---------------------|
A|-3-3\------3-3\------|-2-2\------2-2/------|-5h7-5h7----------5--|---7-----------------|
E|---------------------|---------------------|---------------------|---------------0--2--|
   think     love you    how to be free, I want you      walk this     me.
   that I could  'cause you know                to come   world with


Chorus:
    .
G|---------------------|---------------------|---------------------|---------------------|
D|---------------------|---------------------|---------------------|---------------------|
A|------------3-3--3---|--5------------------|------------3-3--3---|-5-------------------|
E|--3-3--3-------------|-----3--2--0---0-2---|--3-3--3-------------|----3--2---0---0--2--|
    light in  eyes         it's hard to see     Holding on and on    til we believe. With the
        our
                                               .   .     .    .      .   .     .   .
G|---------------------|---------------------|---------------------|---------------------|
D|---------------------|---------------------|-----10-10\----10-10\|-----9--9\-----9--9\-|
A|------------3-3--3---|--5------------------|-3-3/------3-3/------|-2-2/------2-2/------|
E|--3-3--3-------------|-----3--2--0---0-0---|---------------------|---------------------|
    light in  eyes         it's hard to see      I'm not touched     aching to be  I want you to
        our                                                 but I'm
           .
G|-----------------------|-----------------------|-7h9-7h9-7h9-----------|---------------|
D|---------5-5h7-5h7-5h7-|---------5-5h7-5h7-5h7-|--------------7--7--7--|---------------|
A|-5h7-5h7---------------|-5h7-5h7---------------|-----------------------|---7-----r-----|
E|-----------------------|-----------------------|-----------------------|---------------|
   come, I want you to     come  I want you to     come         walk this    me.
                                                                  world with

Interlude:
   . .        . .         . .      . .         .  .      . .         . .     . .
G|----------7--------7-|---------7---------7-|---------7---------7-|-------7---------7---|
D|------7h9------7h9---|-----7h9-------7h9---|------7h9------7h9---|----7h9------7h9-----|
A|-7-7--------6-6------|--5-5------4-4-------|-7-7-------6-6-------|-5-5-----4-4---------|
E|---------------------|---------------------|---------------------|---------------------|
   .          . .         . .      . .         .         . .         . .     . .
G|----------7--------7-|---------7---------7-|---------7---------7-|-------7-------------|
D|------7h9------7h9---|-----7h9-------7h9---|------7h9------7h9---|----7h9----------7h9-|
A|-7-7--------6-6------|--5-5------4-4-------|-7-7-------6-6-------|-5-5-----4-4-7h9-----|
E|---------------------|---------------------|---------------------|---------------------|
                                                                                    And it's


Verse 3:
   . .        . .         . .      . .         .  .      . .         . .     . .
G|----------7--------7-|---------7---------7-|---------7---------7-|-------7---------7---|
D|------7h9------7h9---|-----7h9-------7h9---|------7h9------7h9---|----7h9------7h9-----|
A|-7-7--------6-6------|--5-5------4-4-------|-7-7-------6-6-------|-5-5-----4-4---------|
E|---------------------|---------------------|---------------------|---------------------|
   burning    fingers    burning   road, And   like the  broken and  like    old.    And I
   in our     and it's   on the            I   way you're      I'll  you when you're


Pre-Chorus:
   .   .     .    .      .   .     .   .               .        .
G|---------------------|---------------------|---------------------|---------------------|
D|-----10-10\----10-10\|-----9--9\-----9--9\-|---------5-7-5h7--7\-|---2-----------------|
A|-3-3\------3-3\------|-2-2\------2-2\------|-5h7-5h7-------------|---------------------|
E|---------------------|---------------------|---------------------|---------------0--2--|
   see you  garden       feel you  seed, I     come      walk this     me.         With the
   in the   and I        plant the   want you to         world with


Chorus:
    .
G|---------------------|---------------------|---------------------|---------------------|
D|---------------------|---------------------|---------------------|---------------------|
A|------------3-3--3---|--5------------------|------------3-3--3---|-5-------------------|
E|--3-3--3-------------|-----3--2--0---0-2---|--3-3--3-------------|----3--2---0---0--2--|
     light in  eyes         it's hard to see     Holding on and on    til we believe. With the
        our
    .
G|---------------------|---------------------|---------------------|---------------------|
D|---------------------|---------------------|---------------------|---------------------|
A|------------3-3--3---|--5------------------|------------3-3--3---|-5-------------------|
E|--3-3--3-------------|-----3--2--0---0-2---|--3-3--3-------------|----3--2---0---0--2--|
    light in  eyes         it's hard to see     Holding on and on    til we believe. With the
        our
    .
G|---------------------|---------------------|---------------------|---------------------|
D|---------------------|---------------------|---------------------|-------5h7--7--7--7\-|
A|------------3-3--3---|--5------------------|------------3-3--3---|-5--5-5--------------|
E|--3-3--3-------------|-----3--2--0---0-2---|--3-3--3-------------|---------------------|
     light in  eyes         it's hard to see     Holding on and on    til we believe.
        our
   .   .     .    .      .   .     .   .      .   .      .   .       .   .
G|---------------------|---------------------|---------------------|--------------------12h14-12-|
D|-----10-10\----10-10\|-----9--9\-----9--9\-|-----10-10\----10-10\|-----9--9------12h14---------|
A|-3-3/------3-3/------|-2-2/------2-2/------|-3-3/------3-3/------|-2-2/-----12h14--------------|
E|---------------------|---------------------|---------------------|-----------------------------|
   I'm not   touched     aching to be             Dust to dust         dream to dream. I want you to
             but I'm


Outro:

G|----------12-12h14-12h14-12-|----------12-12h14-12h14-12-|----------12-12h14-12h14-12-|--------|
D|-14--12h14------------------|-14--12h14------------------|-14--12h14------------------|---14~--|
A|----------------------------|----------------------------|----------------------------|--------|
E|----------------------------|----------------------------|----------------------------|--------|
    come, I want you to         come, I want you to          come and walk this world with   me.


************************
| . - staccato
| r - quarter rest
| h - hammer on
| / - slide up
| \ - slice down
************************

↓ Add and view comments below ↓

What do you think about this song and these tabs?

Add your comments, questions, rant or a thumbs up below.

Almost there ...

Sign in to get your own page with links to favourite songs and more. You are just one click away...

Login with Facebook Login with Google