Log in

One click and you are in

Login with Facebook Login with Google

Why sign up and log in

Guitar Tabs Explorer
Heather Nova guitar tabs for Singing you through

Guitar tabs with lyrics

_______________________
   / Heather Nova         /  This beautiful song is about a person being
  / Singing You Through  /  helped through hard times by a close person.
 / Redbird              /  In first place he's not willing to give in to
/______________________/  the help to maintain his pride, but he is helped.

 1st Guitar:
(Heather Nova on Steel-Stringed Acoustic, capo on 2nd fret)

 Intro & Interludes:
  A chord diagramE MajorE       A chord diagramB/D#B/D#    A chord diagramC#m7C#m7    Badd11    A chord diagramAadd9Aadd9           A chord diagramF#m11F#m11   Badd11
|-----0-------0-------0-------0---|-----0-------0-------0-----------|
|-0-------0-------0-------0-------|-0-----0---------0-----0-----0---|
|-1-----------------------8-------|-6-------6-------2---------------|
|---------1-----------------------|---------------------------------|
|-----------------4---------------|---------------------------------|
|-0-----------------------7-------|-5---------------2-------7-------|
 Verses:
  A chord diagramE MajorE                                 Badd11
|---------------------------------|-----0-------0-------0-------0---|
|---------------------------------|-------0-------0-------0-------0-|
|---------------------------------|---------8---------------8-------|
|---------------------------------|---------------------------------|
|---------------------------------|---------------------------------|
|-0-------------------------------|-7---------------7---------------|
          do you think I can't see through                      to


  A chord diagramAadd9Aadd9           A chord diagramE MajorE
|-----0-------0-------0-------0---|
|-------0-------0-------0-------0-|
|-------------------------1-------|
|---------7-----------------------|
|---------------------------------|
|-5---------------0---------------|
  who    you      are

    A chord diagramE MajorE                                 Badd11
||------0-------0-------0-------0---|-----0-------0-------0-------0---|
||o-------0-------0-------0-------0-|-------0-------0-------0-------0-|
||----------1---------------1-------|---------8---------------8-------|
||----------------------------------|---------------------------------|
||o---------------------------------|---------------------------------|
||--0---------------0---------------|-7---------------7---------------|
            all the life that shines below                         the
   hide           build up a wall in-side          and turn yourelf to


  A chord diagramC# minorC#m                               A chord diagramAadd9Aadd9
|-----4-------4-------4-------4---|-----0-------0-------0-------0-------||
|-------5-------5-------5-------5-|-------0-------0-------0-------0-o---||
|-------­--6---------------6-------|------------------------------------||
|-----------------6---------------|---------7---------------7-----------||
|-4-------------------------------|---------------------------------o---||
|---------------------------------|-5---------------5-------------------||
  pain,                 the scars       did you think that you could
  stone      and go through this a-lone                  no, I'll be


 Chorus:
||------0-------0-------0-------0---|-----0-------0-------0-------0----||
||o-0-------0-------0-------0-------|-------0-------0-------0-------0-o||
||--1-------------------------------|-------------------------6--------||
||----------1-----------------------|---------7------------------------||
||o-----------------4---------------|-----------------7---------------o||
||--0-----------------------7-------|-5--------------------------------||
  there      like a bird              singing to you         I'll be
  there      like a bird              singing you through    I'll be
  there        I'll be there          holding the light for you


|-----0-------0-------0-------0---|---------------------------------|
|-------0-------0-------0-------0-|---------------------------------|
|---------6---------------6-------|---------------------------------|
|---------------------------------|---------------------------------|
|---------------------------------|---------------------------------|
|-5---------------5---------------|-5-------------------------------|
  making it right for you                                singing you through


 2nd Guitar:
(Berit Fridahl on Clean Electric, no capo)

 Chorus:
|-12------------|----------------|--------------|----------------|
|-12-----10\9---|-10/12----------|-------10\9---|-10/12---10\9---|
|-13----------9-|-----------9/11-|-9----------9-|--------------9-|
|---------------|----------------|--------------|----------------|
|---------------|----------------|--------------|----------------|
|---------------|----------------|--------------|----------------|

|-12------------|----------------|--------------|----------------|
|--------10\9---|-9/10/12\10-----|-9/10/12\10---|-(12)-----------|
|-------------9-|----------------|--------------|----------------|
|---------------|----------------|--------------|----------------|
|---------------|----------------|--------------|----------------|
|---------------|----------------|--------------|----------------|


 Interludes:
|------------------------|----------------------------|-----|
|-12---10----9-----------|-----------9h10-9-----------|-----|
|-13---11----9----9------|-9---------9----------------|-----|
|----------------11p9----|-9---11---------------------|-----|
|---------------------11-|------------------11-9------|-----|
|------------------------|-----------------------12-9-|-12--|


 Verses:
strum the bar chords with the b- and e-strings open

Jon Sebastian Frederiksen - 21st /September /09

↓ Add and view comments below ↓

What do you think about this song and these tabs?

Add your comments, questions, rant or a thumbs up below.

Almost there ...

Sign in to get your own page with links to favourite songs and more. You are just one click away...

Login with Facebook Login with Google