Log in

One click and you are in

Login with Facebook Login with Google

Why sign up and log in

Guitar Tabs Explorer
Claude Nougaro bass tabs for Armstrong

Bass tabs

Tuning: Standard (E A D G)



INTRO:
G|--------||--------||--------||--------||
D|--------||--------||--------||-1---0--||
A|-5------||-3--3---||----1---||--------||
E|----3---||--------||-3------||--------||
COUPLET 01:
G|--------||--------||--------||--------||
D|--------||--------||--------||--------||
A|------0-||-1----3-||-5----5-||------3-||
E|-3------||--------||--------||-3------||

G|--------||--------||--------||--------||
D|--------||--------||-0---12-||--------||
A|------0-||-1----3-||--------||--------||
E|-3------||--------||--------||-3------||

G|--------||--------||--------||--------||
D|--------||--------||--------||-1------||
A|--------||----3-3-||-----1--||-----3--||
E|----3-3-||--------||-3------||--------||

G|-----0--||------5-||--------||--------||
D|--------||--------||--------||--------||
A|--------||-3------||-1----0-||------1-||
E|-3------||--------||--------||-3------||

G|--------||--------||--------||
D|-1----0-||--------||-1----0-||
A|--------||------1-||--------||
E|--------||-3------||--------||

COUPLET 02:
G|--------||--------||--------||--------||
D|--------||--------||--------||--------||
A|------0-||-1----3-||-5----5-||------3-||
E|-3------||--------||--------||-3------||

G|--------||--------||--------||--------||
D|--------||--------||-0---12-||--------||
A|------0-||-1----3-||--------||--------||
E|-3------||--------||--------||-3------||

G|--------||--------||--------||--------||
D|--------||--------||--------||-1------||
A|--------||----3-3-||-----1--||-----3--||
E|----3-3-||--------||-3------||--------||

G|-----0--||------5-||--------||--------||
D|--------||--------||--------||--------||
A|--------||-3------||-1----0-||------1-||
E|-3------||--------||--------||-3------||

G|--------||--------||--------||
D|-1----0-||--------||-1----0-||
A|--------||------1-||--------||
E|--------||-3------||--------||


COUPLET 03:
G|---------||---------||-----7-7-||
D|---------||---------||---------||
A|-----0-0-||-1-1-3-3-||-5-5-----||
E|-3-3-----||---------||---------||

G|-------5-||---------||---------||
D|---5-----||---------||---------||
A|-----3---||-----0-0-||-1-1-3-3-||
E|-3-------||-3-3-----||---------||

G|---7-----||---------||---------||---------||
D|---------||---------||---------||---------||
A|-5---5-5-||---------||---------||------33-||
E|---------||-3-------||------33-||---------||

G|---------||---------||-0-0-----||---------||
D|---------||-1-1-----||---------||---------||
A|-----1-1-||-----3-3-||---------||-3-3-3-2-||
E|-3-3-----||---------||-----3-3-||---------||

G|---------||---------||---------||---------||---------||
D|---------||---------||-1-1-0-0-||---------||-1-1-0-0-||
A|-1-1-0-0-||-----1-1-||---------||-----1-1-||---------||
E|---------||-3-3-----||---------||-3-3-----||---------||


COUPLET 04:
G|---------||---------||---7-----||
D|---------||---------||---------||
A|-----0-0-||-1-1-3-3-||-5---5\--||
E|-3-3-----||---------||---------||

G|---------||------5--||---------||---3-5---||
D|------5--||---------||---------||---------||
A|---------||-3-------||-----0-0-||-1-----3-||
E|-02/3----||---------||-3-3-----||---------||
    h

G|---7-----||---------||---------||---------||
D|---------||---------||---------||---------||
A|-5----55-||---------||---------||------33-||
E|---------||-3-------||------33-||---------||

G|---------||---------||---------||---------||
D|---------||---------||---------||---------||
A|---------||-0-------||-1-------||-3-------||
E|-3-------||---------||---------||---------||

G|---------||---------||---------||---------||---------||
D|---------||---------||---------||---------||---------||
A|---------||-5-------||---------||-3-------||---------||
E|-3-------||---------||-3-------||---------||-3-------||


************************************

| \  Slide down
| /  Slide up

************************************

↓ Add and view comments below ↓

What do you think about this song and these tabs?

Add your comments, questions, rant or a thumbs up below.

Almost there ...

Sign in to get your own page with links to favourite songs and more. You are just one click away...

Login with Facebook Login with Google