Log in

One click and you are in

Login with Facebook Login with Google

Why sign up and log in

Guitar Tabs Explorer
Nothing But Thieves bass tabs for Get better

Bass tabs

Tuning: Standard (E A D G)


Intro:

G|------------------------------------------------------------------------------------------------|
D|------------------------------------------------------------------------------------------------|
A|------------------------------------------------------------------------------------------------|
E|0-0-0-0-----2-2-2-2-----3-3-3-3-----5-5-5-5-----0-0-0-0-----2-2-2-2-----3-3-3-3-----5-5-5-5-----| x2

Verse 1:

G|----------------------------------------------------------------|
D|----------------------------------------------------------------|
A|7-7---------7-7---7---------------7-7---------7-7---7---7-------|
E|----------------------------------------------------------------|

G|----------------------------------------------------------------|
D|----------------------------------------------------------------|
A|7-7---------7-7-----------7-7-7---7-7---7---7---7---7-7-7-------|
E|----------------------------------------------------------------|

G|----------------------------------------------------------------|
D|----------------------------------------------------------------|
A|----------------------------------------------------------------|
E|8---8-------8---8---8-8-----------5---5-------5---5---5-3-------|

G|----------------------------------------------------------------|
D|----------------------------------------------------------------|
A|7-7---------7-7---7---------------7-7---------7-7---7---7-------|
E|----------------------------------------------------------------|

G|----------------------------------------------------------------------------------------------|
D|----------------------------------------------------------------------------------------------|
A|----------------------------------------------------------------------------------------------|
E|8---8-------8---8---8-8-----------5---5-------5---5---5---------5---5-------5---5-------------|


Chorus:

G|------------------------------------------------------------------------------------------------|
D|------------------------------------------------------------------------------------------------|
A|------------------------------------------------------------------------------------------------|
E|0-0-0-0-----2-2-2-2-----3-3-3-3-----5-5-5-5-----0-0-0-0-----2-2-2-2-----3-3-3-3-----5-5-5-5-----|

G|------------------------------------------------------------------------------------------------|
D|------------------------------------------------------------------------------------------------|
A|7---7---7---5---5---5---4---4---4---3---3---3---------------5---5---5---4---4---4---3---3---3---|
E|------------------------------------------------0---0---0---------------------------------------|

G|------------------------------------------------------------------------------------------------|
D|------------------------------------------------------------------------------------------------|
A|------------------------------------------------------------------------------------------------|
E|0-0-0-0-----2-2-2-2-----3-3-3-3-----5-5-5-5-----0-0-0-0-----2-2-2-2-----3-3-3-3-----5-5-5-5-----|


Verse 2:

G|----------------------------------------------------------------|
D|----------------------------------------------------------------|
A|7-7-7-7-7-7-7-7-7-7-7-7-7-7-7-7-7-7-7-7-7-7-7-7-7-7-7-7-7-5-7-7-|
E|----------------------------------------------------------------|

G|----------------------------------------------------------------|
D|----------------------------------------------------------------|
A|7-7-7-7-7-7-7-7-7-7-7-7-7-7-7-7-7-7-7-7-7-7-7-7-7-7-7-5-7-5-5-5-|
E|----------------------------------------------------------------|

G|----------------------------------------------------------------------------------------------|
D|----------------------------------------------------------------------------------------------|
A|----------------------------------------------------------------------------------------------|
E|8-8-8-8-8-8-8-8-8-8-8-8-8-8-8-3-3-5-5-5-5-5-5-5-5-5-5-5-5-5-5-5-5-5-5-5---5-5-5-5-5-5-5-------|


Chorus:

G|------------------------------------------------------------------------------------------------|
D|------------------------------------------------------------------------------------------------|
A|------------------------------------------------------------------------------------------------|
E|0-0-0-0-----2-2-2-2-----3-3-3-3-----5-5-5-5-----0-0-0-0-----2-2-2-2-----3-3-3-3-----5-5-5-5-----|

G|--------------------------------------------------------------------------------|
D|--------------------------------------------------------------------------------|
A|7---7---7---5---5---5---4---4---4---3---3---3---------------5---5---5---4---4---|
E|------------------------------------------------0---0---0-----------------------|


Bridge:

G|----------------------------------------------------------------|
D|3---3---3---3---3---3---3---------------------------------------|
A|----------------------------3---5---5---5---5---5---5---5---3---|
E|----------------------------------------------------------------| x3

G|----------------------------------------------------------------|
D|3---3---3---3---3---3---3---3---5---5---5---5---6---6---6---6---|
A|----------------------------------------------------------------|
E|----------------------------------------------------------------|

G|----------------------------------------------------------------|
D|----------------------------------------------------------------|
A|----------------------------------------------------------------|
E|--------0-------0-------0-------0-------0-------0-------0-------|

G|----------------------------------------------------------------|
D|----------------------------------------------------------------|
A|----------------------------------------------------------------|
E|0--------0-------0-------0--------------------------------------|


Chorus:

G|------------------------------------------------------------------------------------------------|
D|------------------------------------------------------------------------------------------------|
A|----------------------------------------------------------------------------------------2-------|
E|0-0-0-0-----2-2-2-2-----3-3-3-3-----5-5-5-5-----0-0-0-0-----2-2-2-2-----3-3-3-3-----5-5---5-3-2-|

G|------------------------------------------------------------------------------------------------|
D|------------------------------------------------------------------------------------------------|
A|7---7---7---5---5---5---4---4---4---3---3---3---------------5---5---5---4---4---4---3---3---3---|
E|------------------------------------------------0---0---0---------------------------------------|

G|--------------------------------------------------------------------------------------------------|
D|--------------------------------------------------------------------------------------------------|
A|--------------------------------------------------------------------------------------------------|
E|0-0-0-0-----2-2-2-2-----3-3-3-3-----5-5-5-5-----0-0-0-0-----2-2-2-2-----3-3-3-3-----5-5-5-5-----0~|


************************************

| /  Slide up
| \  Slide down
| ~  Vibrato

************************************

Almost there ...

Sign in to get your own page with links to favourite songs and more. You are just one click away...

Login with Facebook Login with Google