Log in

One click and you are in

Login with Facebook Login with Google

Why sign up and log in

Guitar Tabs Explorer
Northlane guitar tabs for Weightless

Intro with lyrics

Weightless - Northlane
Album: Node

Hey guys, this song is meant to be played on a 7-string, the tuning is Drop A chord diagramA#A# with a low F:
(F, A#, F, A#, D#, G, A chord diagramC majorC)
However the song doesn't use the A chord diagramD#D# string and so it can be played on a 6 string if your strings are thick
enough. Tune DOWN to F, A#, F, A#, G, C.

This tab is for a six string with this tuning. Enjoy!

[Intro]

A chord diagramC majorC |---------------------------------------------------------------------------|
A chord diagramG MajorG |--5~-------------3~--------------7~--------------3~------------5~----------|
A#|---------------------------------------------------------------------------|
A chord diagramFF |---------------------------------------------------------------------------|
A#|---------------------------------------------------------------------------|
A chord diagramFF |---let-ring----------------------------------------------------------------|

Continue until vocals come in.


[Verse]

When the vocals come in, the bass plays this, but it sounds good on guitar too.

   Weightless my body floats.................in eterrrrrrrnityyyyyyy
A chord diagramC majorC |---------------------------------------------------------------------------|
A chord diagramG MajorG |---------------------------------------------------------------------------|
A#|---------------------------------------------------------------------------|
A chord diagramFF |-----------------7--------------------------------------7------------------|
A#|---------------------------------------------------------------------------|
A chord diagramFF |--7~----------------7~------------------------7~-----------7~--------------|

   Weightless beyond the earth's.................graaaaaavityyyyyyy
A chord diagramC majorC |---------------------------------------------------------------------------|
A chord diagramG MajorG |---------------------------------------------------------------------------|
A#|---------------------------------------------------------------------------|
A chord diagramFF |--------------7-----------------------------------------7------------------|
A#|---------------------------------------------------------------------------|
A chord diagramFF |--7~--------------7~--------------------------7~-----------7~--------------|

   A chord diagramA majorA euphoric.... perpetual                      gaze...
A chord diagramC majorC |---------------------------------------------------------------------------|
A chord diagramG MajorG |---------------------------------------------------------------------------|
A#|---------------------------------------------------------------------------|
A chord diagramFF |---5----------5------------------------------------------------------------|
A#|---------------------------------------------------------------------------|
A chord diagramFF |------3~---------0~---------------------------7~---------------------------|

     I....     taste...   the light... of...    daaaaaayyyyyyyiiiiii
A chord diagramC majorC |---------------------------------------------------------------------------|
A chord diagramG MajorG |---------------------------------------------------------------------------|
A#|---------------------------------------------------------------------------|
A chord diagramFF |-----------------------5---------------------------------------------------|
A#|--------------------------------------------5/7~hold-----------------------|
A chord diagramFF |--3~----------------------5~---------------0-------------------------------|


[Riff Riffington]

This isn't exactly right, but it's close enough for you to figure out :)

A chord diagramC majorC |---------------------------------------------------------------------------|
A chord diagramG MajorG |---------------------------------------------------------------------------|
A#|--------------6~-----------------------------------------------------------|
A chord diagramFF |----------------7~-------------------------------------0/7-7---------------|
A#|---------------------------------------------------------------------------|
A chord diagramFF |--5/7--7--7h8-----7--7---7/8\7--7--7--7---7\5--5/7--7---------7-7---7/8\7--|

A chord diagramC majorC |-------------------------------------------------------------------
A chord diagramG MajorG |-------------------------------------------------------------------
A#|-------------------------------------------------------------------
A chord diagramFF |--------------------------0/7-7------------------------------------
A#|-------------------------------------------------------------------
A chord diagramFF |--7--7--7--7---7\5--5/7----------7/8\7--8\7--7/8\7--7--7--7\5--5/7-

                                                        Buh-
A chord diagramC majorC |----------------------------------------------------------------------|
A chord diagramG MajorG |----------------------------------------------------------------------|
A#|----------------------------------------------------------------------|
A chord diagramFF |---0/7-7-----------------------7-7----------7-7-----------------------|
A#|----------------------------------------------------------------------|
A chord diagramFF |7---------7-7---7/8\7--8\7--7-------7\5/7---------7-7--7/5-8-7-5-0----|


[Pre-Chorus]

   -neath   a    luminescent     haze                            I..
A chord diagramC majorC |--------------------------------------------------------------------|
A chord diagramG MajorG |--------------------------------------------------------------------|
A#|--------5~------------7~-------------6~-----------------6~----------|
A chord diagramFF |-----5~------------7~-------------7~-----------------7~-------------|
A#|--------------------------------------------------------------------|
A chord diagramFF |---3~----------/5~------------/7~------------8-5-5/7~------7-7-5----|

   cross   the    convoluted    maze
A chord diagramC majorC |--------------------------------------------------------------------|
A chord diagramG MajorG |--------------------------------------------------------------------|
A#|--------5~------------7~-------------6~-----------------6~----------|
A chord diagramFF |-----5~------------7~-------------7~-----------------7~-------------|
A#|--------------------------------------------------------------------|
A chord diagramFF |---3~----------/5~------------/7~------------8-5-5/7~------7-7-5----|

   Guided by..    sight....       sounds....
A chord diagramC majorC |--------------------------------------------------------------------|
A chord diagramG MajorG |--------------------------------------------------------------------|
A#|--------5~------------7~-------------6~-----------------6~----------|
A chord diagramFF |-----5~------------7~-------------7~-----------------7~-------------|
A#|--------------------------------------------------------------------|
A chord diagramFF |---3~----------/5~------------/7~------------8-5-5/7~------7-7-5----|

   I let...      go of...             what weighs me to the ground
A chord diagramC majorC |--------------------------------------------------------------------|
A chord diagramG MajorG |--------------------------------------------------------------------|
A#|--------5~------------7~hold----------------------------------------|
A chord diagramFF |-----5~------------7~hold-------------------------------------------|
A#|--------------------------------------------------------------------|
A chord diagramFF |---3~----------/5~hold----------------------------------------------|


[Chorus]

These are the chords played, listen to the song to hear when to hit the notes

                                       ...earth's gravity
A chord diagramC majorC |---------------------------------------------------------------------------|
A chord diagramG MajorG |---------------------------------------------------------------------------|
A#|--2---------------------------5--------------------------------------------|
A chord diagramFF |--2------x------x------x------5------x-------------------------------------|
A#|--2------5------2------5------5------2-------------------------------------|
A chord diagramFF |--x------3------0------3------x------0-------------------------------------|

                                       ...light of days
A chord diagramC majorC |---------------------------------------------------------------------------|
A chord diagramG MajorG |---------------------------------------------------------------------------|
A#|--2---------------------------5------7-----------2~hold--------------------|
A chord diagramFF |--2------x------x------x------5------7-----------2~hold--------------------|
A#|--2------5------2------5------5------7-----------2~hold--------------------|
A chord diagramFF |--x------3------0------3------x------x-----------x-------------------------|


[Outro]

A chord diagramC majorC |---------------------------------------------------------------------------|
A chord diagramG MajorG |-8~-------3/7~----5~-----12--5\3~----5~--0~--5~-3~--0~---------------------|
A#|---------------------------------------------------------------------------|
A chord diagramFF |---------------------------------------------------------------------------|
A#|---------------------------------------------------------------------------|
A chord diagramFF |---------------------------------------------------------------------------|

A chord diagramC majorC |---------------------------------------------------------------------------|
A chord diagramG MajorG |-5~--5\3/7slowbend8~--8-/12~---5\3~---/5--0~---5~-3~-0~--------------------|
A#|---------------------------------------------------------------------------|
A chord diagramFF |---------------------------------------------------------------------------|
A#|---------------------------------------------------------------------------|
A chord diagramFF |---------------------------------------------------------------------------|

A chord diagramC majorC |---------------------------------------------------------------------------|
A chord diagramG MajorG |-5~--5\3/7slowbend8~--8-/12~---5\3~---/5--0~---5~-3~-----------------------|
A#|---------------------------------------------------------------------------|
A chord diagramFF |---------------------------------------------------------------------------|
A#|---------------------------------------------------------------------------|
A chord diagramFF |---------------------------------------------------------------------------|


***********************************
| /   Slide up
| \   Slide down
| ~   Let ring
| h   Hummer-on
| p   Pull-off
| x   Dead note

↓ Add and view comments below ↓

What do you think about this song and these tabs?

Add your comments, questions, rant or a thumbs up below.

Almost there ...

Sign in to get your own page with links to favourite songs and more. You are just one click away...

Login with Facebook Login with Google