Log in

One click and you are in

Login with Facebook Login with Google

Why sign up and log in

Guitar Tabs Explorer
Northlane guitar tabs for Quantum flux

Guitar tabs

This is Quantum Flux by Northlane. I used the Amazing Slow Downer to figure out some
parts. It is incomplete
but this is all I had time for. Enjoy


Tuning: A chord diagramFF A chord diagramA#A# A chord diagramFF A chord diagramA#A# d# g c
c|-17p0-12/8-------17p0-12/8-------17p0-12/8\10/8-17p0-12/8-------17p0-12-24p0-12\15p0-12/8--------|
g|-----------10\12-----------10\12--------------------------10\12---------------------------10\12--|
d#|------------------------------------------------------------------------------------------------|
A chord diagramA#A#|------------------------------------------------------------------------------------------------|
A chord diagramFF|-------------------------------------------------------------------------------------------------|
A chord diagramA#A#|------------------------------------------------------------------------------------------------|
A chord diagramFF|-------------------------------------------------------------------------------------------------|

g |-15p0-12/8-------15p0-12/8\10/8-15p0-12/8----------12-|
c |-----------10\12--------------------------10\12-10----|
d#|------------------------------------------------------|
A chord diagramA#A#|------------------------------------------------------|
A chord diagramFF |------------------------------------------------------|
A chord diagramA#A#|------------------------------------------------------|
A chord diagramFF |------------------------------------------------------|

g |---------------------------------------------------------------------|
c |---------------------------------------------------------------------| listen to song
d#|---------------------------------------------------------------------| for pattern
A chord diagramA#A#|---------------------------------------------------------------------|
A chord diagramFF |---------------------------------------------------------------------|
A chord diagramA#A#|---------------------------------------------------------------------|
A chord diagramFF |-0-0--0-0--0--0-0-0-0-0--0-0-0--0-0-00--0-0-0--0-0-00-0-0--0-0-0-0-0-|


g |------------------------------------------------------------|
c |------------------------------------------------------------|
d#|------------------------------------------------------------|
A chord diagramA#A#|------------------------------------------------------------|
A chord diagramFF |------------------------------------------------------------|
A chord diagramA#A#|-----------7b-----------7b-----7b--------7b-----------------|
A chord diagramFF |-0-00-0-00----0-0-00-00----0-0---0-00-00---0-00-000-0-3101--|

g |--------------------------|
c |--------------------------|
d#|-16p12p0-x10--17p12p0-x10-| not entirely sure about the clean bit in this bit
A chord diagramA#A#|--------------------------|
A chord diagramFF |--------------------------|
A chord diagramA#A#|--------------------------|
A chord diagramFF |--------------------------|

c |--------------------------------------------------------------------------------------------------|
g |--------------------------------------------------------------------------------------------------|
d#|--------9b---------------7---4--------------5------------4----------------5-----------------------|
A chord diagramA#A#|--------------------------------------------------------------------3-2-0--------------5----------|
A chord diagramFF |-----------------------------------------------------------------------------------------3--------|
A chord diagramA#A#|-7b----------7b---9b-------------9----------------------------------------------------------------|
A chord diagramFF |----0-0----0----0----5-5---0---0---5-8--8-8---8-8-8-8--8---8-8--8-8---------3--3-3-3-3-----3--3-3-|

|-------------------------------|
|-------------------------------|
|-------------------------------|
|------------------5------------|
|--------------------3----------|
|-------------------------------|
|-5--5-5--5-5-5-5-5-5--0--0-0-0-|

Other versions of Quantum Flux

Quantum fluxChords

Almost there ...

Sign in to get your own page with links to favourite songs and more. You are just one click away...

Login with Facebook Login with Google