Log in

One click and you are in

Login with Facebook Login with Google

Why sign up and log in

Guitar Tabs Explorer
Noori guitar tabs for Jaa re

Guitar tabs with lyrics

Album: Suno Kay Mein Hoon Jawan
Tabbed by: Ali Hafeez (necromorphic@hotmail.com)
This tab is completely my own work.

Symbols:

h - hammer on
p - pull off
~ - hold
<> - artificial harmonic
 - slide up (towards 0 fret)
b - bend
NOTE:
	Ok, so here is another one of the noori songs i like. It's pretty easy
to play. No special effects, distortions and clean tones used. I added the
timings on the solos to help a bit, it might not be spot on, but it sounds
ok to me. There is a variation on the chorus the second last time he plays
it in the song, where he goes to an A chord diagramA augmentedA chord instead of a A chord diagramG+G chord like the
usual chorus ending.


Fig 1

Intro/Post Chorus
|---------------------------------------|
|---------------------------------------|
|---------------------------------------|
|---7-7---7-7---------------------------|
|---5-5---5-5---5-5---5-5---4-4---5-5---|
|---------------3-3---3-3---2-2---3-3---|


Fig 2

Verse							    (1&2 verse)(3rd verse)
|---------------------------------------------|---------||--------||
|---------------------------------------------|---------||--------||
|---------------------------------------------|---------||--------||
|---7-7---7-7---------------------------------|---------||--------||
|---5-5---5-5---5-5---5-5---4-4---4-4---5-5---|---5-5---||---7~---||
|---------------3-3---3-3---2-2---2-2---3-3---|---3-3---||---5~---||

					(Not Played Second Time)
|----------------------------|---------------------------||
|-----3-----3-----3-----3----|-----3-----3----3----3-----||
|-------2-----2-----2-----2--|-------2-----2----2----2---||
|---0~----------0~-----------|---------------------------||
|----------------------------|---------------------------||
|----------------------------|---3~----------3~----------||

Fig 3

Chorus
|---------------------------------------------------------------||
|---------------------------------------------------------------||
|---------------------------------------------------------------||
|------------------7-----7------4-----7777-----4--7-------------||
|---5--7---2-4-5---5--5--5--7---2--5--5555-7---2--5--5-5--5-5---||
|---3--5---0-2-3------3-----5------3-------5---------3-3--3-3---||


Fig 4

Solo
(2:14 - 2:18)
|----------------------------------------------|
|-----------10-1010--10-10-12p10-10-10h12------|
|---9-9-7-9-9--9-9---9-----9-----9--------7~---|
|---7-7-7-7-7--7-7-----------------------------|
|----------------------------------------------|
|----------------------------------------------|

(2:18 - 2:24)
|--------------------------------------------------------------|
|---9p7---7-9p7-<9>b<10>r9--------------------------9/11~-9~---|
|-------9-------------------14p12p9-14p12p9-14p12p9------------|
|--------------------------------------------------------------|
|--------------------------------------------------------------|
|--------------------------------------------------------------|

(2:24 - 2:26) this part is a little fast
|-----------------------------------------------------------------------|
|--------------------------------------------------------------15--17---|
|------------------------------------------14-14-14--16-16-16-----------|
|-----------------------14-14-14--16-16-16------------------------------|
|---14-14-14--17-17-17--------------------------------------------------|
|-----------------------------------------------------------------------|

(2:26 - 2:30)
|------------------------------19-17~--17h19p17----17p19------------------|
|---19p17p15-19p17p15-19p17p15------------------19-------19p17-19p1715---|
|-------------------------------------------------------------------------|
|-------------------------------------------------------------------------|
|-------------------------------------------------------------------------|
|-------------------------------------------------------------------------|

(2:31 - 2:33)
|---------19-------------||
|---17-17----19p17-17---||
|------------------------||
|------------------------||
|------------------------||
|------------------------||


Fig 5

Bridge
|-----------------------------------------------------|
|-----------------------------------------------------|
|-------0-----0---------------0-----0-----0-----0-----|
|-----0-----0-----0~---0----0-----0-----0-----0---0---|
|-------------------------5-----------5---------------|
|---3-----5-----0----3----------3-----------5---------|

|----------------------------------------------------|
|----------------------------------------------------|
|-------0-----0-----0-----0-----0-----0--------------|
|-----0-----0-----0-----0-----0-----0----------------|
|---2-----------5-----------2-----5-------5-5--5-5---|
|---------3-----------5-------------------3-3--3-3---|


Fig 6

Bridge Fill (Guitar 2)
(2:43)
|---9h10-9p7----------|
|-------------7h8p7---|
|---------------------|
|---------------------|
|---------------------|
|---------------------|

Almost there ...

Sign in to get your own page with links to favourite songs and more. You are just one click away...

Login with Facebook Login with Google