Log in

One click and you are in

Login with Facebook Login with Google

Why sign up and log in

Guitar Tabs Explorer
Nonpoint bass tabs for Hands off

Bass tabs

Album: Vengeance


Tuning: C,F,Bb,Eb

I could not find a tab for this awesome song so i had to post it. I am going to post
songs of the vengeance album so stay tuned.this is a fairly accurate tab.just listen to the
to get the timing and stuff. ENJOY!!
Intro,(pre-chorus):

C:-0~~~~0~~~~3~~~
F:---------------|
Bb:--------------|
E:---------------|


Intro(heavy part)/Chorus:

C:-0-3-0-4-0-5-0-6-0-7\8-----0-5-0-6-0-7-0-8-0-9-0-10\11-|
F:-------------------------------------------------------|
Bb:------------------------------------------------------|
Eb:------------------------------------------------------|

C:-0-3-0-4-0-5-0-6-0-7\8-----0-5-0-6-0-7-5~~3~~---------|
F:------------------------------------------------------|
Bb:-----------------------------------------------------|
Fb:-----------------------------------------------------|

C:-0-3-5-6-4-0-7\8---0-3-5-6-4-0-8\9--------------------|
F:------------------------------------------------------|
Bb:-----------------------------------------------------|
Eb:-----------------------------------------------------|

C:-0-3-5-6-4-0-7\8---0-3-5-5~~3~~-----------------------|
F:------------------------------------------------------|
Bb:-----------------------------------------------------|
Eb:-----------------------------------------------------|

Verse:

C:-3\5-3-0-3-5-3-0---0-3-5-3-0--------------------------|(X4)
F:------------------------------------------------------|
Bb:-----------------------------------------------------|
Eb:-----------------------------------------------------|


Pre-Chorus (X1)

Chorus (X1)

Verse (X1)

Pre-Chorus (x1)

Chorus (X1)

Post Chorus:

C:-00---00---00-3~~~~-----|
F:------------------------|
Bb:-----------------------|
Eb:-----------------------|

C:------------------------------------------------------|
B:-0-3-4-5-6/1------------------------------------------|
Bb:-----------------------------------------------------|
Eb:-----------------------------------------------------|

Breakdown:

C:-0-3-5-3-0--7---0-3-5-3-0--8--0-3-5-3-0-0-3~~~5~~~7~~~-|3(X4)
F:-------------------------------------------------------|
Bb:------------------------------------------------------|
Eb:------------------------------------------------------|


Chorus (x2)

End:

C:-00---------|
F:------------|
Bb:-----------|
Eb:-----------|

Thats it and enjoy, rate this tab please and I will be posting 'A Way Out' shortly

Almost there ...

Sign in to get your own page with links to favourite songs and more. You are just one click away...

Login with Facebook Login with Google