Log in

One click and you are in

Login with Facebook Login with Google

Why sign up and log in

Guitar Tabs Explorer
Nomeansno guitar tabs for Two lips two lungs and one tongue

Two Lips Two Lungs And One Tongue tab by Nomeansno

Nomeansno guitar tabs for Two lips two lungs and one tongue

Guitar tabs

Nomeansno - Two Lips, Two Lungs and One Tongue


INTRO
A chord diagramE MajorE||-------------------------|--------------------------|
A chord diagramBB||-------------------------|--------------------------|
A chord diagramG+G||-------------------------|--------------------------|
A chord diagramD MajorD||--5----5--5--5--5--5--5--|--5--5--5--5--5--5--5--5--|
A chord diagramA augmentedA||--5----5--5--5--5--5--5--|--5--5--5--5--5--5--5--5--|
A chord diagramE MajorE||--3----3--3--3--3--3--3--|--3--3--3--3--3--3--3--3--|

----------------------------------|----------------------------------|
----------------------------------|----------------------------------|
--11--11--11--11--11--11--11--11--|--11--11--11--11--11--11--11--11--|
--11--11--11--11--11--11--11--11--|--11--11--11--11--11--11--11--11--|
---9---9---9---9---9---9---9---9--|---9---9---9---9---9---9---9---9--|
----------------------------------|----------------------------------|

-------------------------|--------------------------|
-------------------------|--------------------------|
-------------------------|--------------------------|
--5----5--5--5--5--5--5--|--5--5--5--5--5--5--5--5--|
--5----5--5--5--5--5--5--|--5--5--5--5--5--5--5--5--|
--3----3--3--3--3--3--3--|--3--3--3--3--3--3--3--3--|

----------------------------------|----------------------------------|
----------------------------------|----------------------------------|
--11--11--11--11--11--11--11--11--|--11--11--11--11--11--11--11--11--|
--11--11--11--11--11--11--11--11--|--11--11--11--11--11--11--11--11--|
---9---9---9---9---9---9---9---9--|---9---9---9---9---9---9---9---9--|
----------------------------------|----------------------------------|


VERSE
-------------------------|--------------------------|--------------------------|
-------------------------|--------------------------|--------------------------|
-------------------------|--------------------------|--------------------------|
--5----5--5--5--5--5--5--|--5--5--5--5--5--5--5--5--|--4--4--4--4--4--4--4--4--|
--5----5--5--5--5--5--5--|--5--5--5--5--5--5--5--5--|--4--4--4--4--4--4--4--4--|
--3----3--3--3--3--3--3--|--3--3--3--3--3--3--3--3--|--2--2--2--2--2--2--2--2--|

--------------------------|-------------------------|--------------------------|
--------------------------|-------------------------|--------------------------|
--------------------------|-------------------------|--------------------------|
--4--4--4--4--4--4--4--4--|--5----5--5--5--5--5--5--|--5--5--5--5--5--5--5--5--|
--4--4--4--4--4--4--4--4--|--5----5--5--5--5--5--5--|--5--5--5--5--5--5--5--5--|
--2--2--2--2--2--2--2--2--|--3----3--3--3--3--3--3--|--3--3--3--3--3--3--3--3--|

                                                     CHORUS
--------------------------|--------------------------|----------------------|
--------------------------|--------------------------|----------------------|
--------------------------|--------------------------|--9----9----9----9----|
--4--4--4--4--4--4--4--4--|--4--4--4--4--4--4--4--4--|--9----9----9----9----|
--4--4--4--4--4--4--4--4--|--4--4--4--4--4--4--4--4--|--7----7----7----7----|
--2--2--2--2--2--2--2--2--|--2--2--2--2--2--2--2--2--|----------------------|

----------------------|----------------------|---------------------------|
----------------------|----------------------|---------------------------|
--9----9----9----9----|--9----9----9----9----|--9----9----9----9----9----|
--9----9----9----9----|--9----9----9----9----|--9----9----9----9----9----|
--7----7----7----7----|--7----7----7----7----|--7----7----7----7----7----|
----------------------|----------------------|---------------------------|

-------------------------|--------------------------|
-------------------------|--------------------------|
-------------------------|--------------------------|
--5----5--5--5--5--5--5--|--5--5--5--5--5--5--5--5--|
--5----5--5--5--5--5--5--|--5--5--5--5--5--5--5--5--|
--3----3--3--3--3--3--3--|--3--3--3--3--3--3--3--3--|

----------------------------------|----------------------------------|
----------------------------------|----------------------------------|
--11--11--11--11--11--11--11--11--|--11--11--11--11--11--11--11--11--|
--11--11--11--11--11--11--11--11--|--11--11--11--11--11--11--11--11--|
---9---9---9---9---9---9---9---9--|---9---9---9---9---9---9---9---9--|
----------------------------------|----------------------------------|

-------------------------|--------------------------|
-------------------------|--------------------------|
-------------------------|--------------------------|
--5----5--5--5--5--5--5--|--5--5--5--5--5--5--5--5--|
--5----5--5--5--5--5--5--|--5--5--5--5--5--5--5--5--|
--3----3--3--3--3--3--3--|--3--3--3--3--3--3--3--3--|

----------------------------------|----------------------------------|
----------------------------------|----------------------------------|
--11--11--11--11--11--11--11--11--|--11--11--11--11--11--11--11--11--|
--11--11--11--11--11--11--11--11--|--11--11--11--11--11--11--11--11--|
---9---9---9---9---9---9---9---9--|---9---9---9---9---9---9---9---9--|
----------------------------------|----------------------------------|


VERSE
-------------------------|--------------------------|--------------------------|
-------------------------|--------------------------|--------------------------|
-------------------------|--------------------------|--------------------------|
--5----5--5--5--5--5--5--|--5--5--5--5--5--5--5--5--|--4--4--4--4--4--4--4--4--|
--5----5--5--5--5--5--5--|--5--5--5--5--5--5--5--5--|--4--4--4--4--4--4--4--4--|
--3----3--3--3--3--3--3--|--3--3--3--3--3--3--3--3--|--2--2--2--2--2--2--2--2--|

--------------------------|-------------------------|--------------------------|
--------------------------|-------------------------|--------------------------|
--------------------------|-------------------------|--------------------------|
--4--4--4--4--4--4--4--4--|--5----5--5--5--5--5--5--|--5--5--5--5--5--5--5--5--|
--4--4--4--4--4--4--4--4--|--5----5--5--5--5--5--5--|--5--5--5--5--5--5--5--5--|
--2--2--2--2--2--2--2--2--|--3----3--3--3--3--3--3--|--3--3--3--3--3--3--3--3--|

                                                      CHORUS
--------------------------|--------------------------|----------------------|
--------------------------|--------------------------|----------------------|
--------------------------|--------------------------|--9----9----9----9----|
--4--4--4--4--4--4--4--4--|--4--4--4--4--4--4--4--4--|--9----9----9----9----|
--4--4--4--4--4--4--4--4--|--4--4--4--4--4--4--4--4--|--7----7----7----7----|
--2--2--2--2--2--2--2--2--|--2--2--2--2--2--2--2--2--|----------------------|

----------------------|----------------------|---------------------------|
----------------------|----------------------|---------------------------|
--9----9----9----9----|--9----9----9----9----|--9----9----9----9----9----|
--9----9----9----9----|--9----9----9----9----|--9----9----9----9----9----|
--7----7----7----7----|--7----7----7----7----|--7----7----7----7----7----|
----------------------|----------------------|---------------------------|

-------------------------|--------------------------|
-------------------------|--------------------------|
-------------------------|--------------------------|
--5----5--5--5--5--5--5--|--5--5--5--5--5--5--5--5--|
--5----5--5--5--5--5--5--|--5--5--5--5--5--5--5--5--|
--3----3--3--3--3--3--3--|--3--3--3--3--3--3--3--3--|

----------------------------------|----------------------------------|
----------------------------------|----------------------------------|
--11--11--11--11--11--11--11--11--|--11--11--11--11--11--11--11--11--|
--11--11--11--11--11--11--11--11--|--11--11--11--11--11--11--11--11--|
---9---9---9---9---9---9---9---9--|---9---9---9---9---9---9---9---9--|
----------------------------------|----------------------------------|

-------------------------|--------------------------|---------------------|
-------------------------|--------------------------|---------------------|
-------------------------|--------------------------|--11-----------------|
--5----5--5--5--5--5--5--|--5--5--5--5--5--5--5--5--|--11-----------------|
--5----5--5--5--5--5--5--|--5--5--5--5--5--5--5--5--|---9-----------------|
--3----3--3--3--3--3--3--|--3--3--3--3--3--3--3--3--|---------------------|


BRIDGE
---------------------|-----------------------|
--12 bend and hold---|--release--------------|
---------------------|-----------------------|
---------------------|-----------------------|
---------------------|-----------------------|
---------------------|-----------------------|

-------------------|-------------------------|--------------------------|
-------------------|-------------------------|--------------------------|
-------------------|-------------------------|--------------------------|
-------------------|--5----5--5--5--5--5--5--|--5--5--5--5--5--5--5--5--|
-------------------|--5----5--5--5--5--5--5--|--5--5--5--5--5--5--5--5--|
-------------------|--3----3--3--3--3--3--3--|--3--3--3--3--3--3--3--3--|

--------------------------|--------------------------|-------------------------|
--------------------------|--------------------------|-------------------------|
--------------------------|--------------------------|-------------------------|
--4--4--4--4--4--4--4--4--|--4--4--4--4--4--4--4--4--|--5----5--5--5--5--5--5--|
--4--4--4--4--4--4--4--4--|--4--4--4--4--4--4--4--4--|--5----5--5--5--5--5--5--|
--2--2--2--2--2--2--2--2--|--2--2--2--2--2--2--2--2--|--3----3--3--3--3--3--3--|

--------------------------|----------------------------------|
--------------------------|----------------------------------|
--------------------------|--11--11--11--11--11--11--11--11--|
--5--5--5--5--5--5--5--5--|--11--11--11--11--11--11--11--11--|
--5--5--5--5--5--5--5--5--|---9---9---9---9---9---9---9---9--|
--3--3--3--3--3--3--3--3--|----------------------------------|

----------------------------------|-------------------------|
----------------------------------|-------------------------|
--11--11--11--11--11--11--11--11--|-------------------------|
--11--11--11--11--11--11--11--11--|--5----5--5--5--5--5--5--|
---9---9---9---9---9---9---9---9--|--5----5--5--5--5--5--5--|
----------------------------------|--3----3--3--3--3--3--3--|


VERSE
--------------------------|--------------------------|
--------------------------|--------------------------|
--------------------------|--------------------------|
--5--5--5--5--5--5--5--5--|--4--4--4--4--4--4--4--4--|
--5--5--5--5--5--5--5--5--|--4--4--4--4--4--4--4--4--|
--3--3--3--3--3--3--3--3--|--2--2--2--2--2--2--2--2--|

--------------------------|-------------------------|--------------------------|
--------------------------|-------------------------|--------------------------|
--------------------------|-------------------------|--------------------------|
--4--4--4--4--4--4--4--4--|--5----5--5--5--5--5--5--|--5--5--5--5--5--5--5--5--|
--4--4--4--4--4--4--4--4--|--5----5--5--5--5--5--5--|--5--5--5--5--5--5--5--5--|
--2--2--2--2--2--2--2--2--|--3----3--3--3--3--3--3--|--3--3--3--3--3--3--3--3--|

                                                     OUT-CHORUS
--------------------------|--------------------------|----------------------|
--------------------------|--------------------------|----------------------|
--------------------------|--------------------------|--9----9----9----9----|
--4--4--4--4--4--4--4--4--|--4--4--4--4--4--4--4--4--|--9----9----9----9----|
--4--4--4--4--4--4--4--4--|--4--4--4--4--4--4--4--4--|--7----7----7----7----|
--2--2--2--2--2--2--2--2--|--2--2--2--2--2--2--2--2--|----------------------|

----------------------|----------------------|---------------------------|
----------------------|----------------------|---------------------------|
--9----9----9----9----|--9----9----9----9----|--9----9----9----9----9----|
--9----9----9----9----|--9----9----9----9----|--9----9----9----9----9----|
--7----7----7----7----|--7----7----7----7----|--7----7----7----7----7----|
----------------------|----------------------|---------------------------|

----------------------|----------------------|----------------------|
----------------------|----------------------|----------------------|
--9----9----9----9----|--9----9----9----9----|--9----9----9----9----|
--9----9----9----9----|--9----9----9----9----|--9----9----9----9----|
--7----7----7----7----|--7----7----7----7----|--7----7----7----7----|
----------------------|----------------------|----------------------|

---------------------------|----------------------|----------------------|
---------------------------|----------------------|----------------------|
--9----9----9----9----9----|--9----9----9----9----|--9----9----9----9----|
--9----9----9----9----9----|--9----9----9----9----|--9----9----9----9----|
--7----7----7----7----7----|--7----7----7----7----|--7----7----7----7----|
---------------------------|----------------------|----------------------|

----------------------|---------------------------|-------------------|
----------------------|---------------------------|-------------------|
--9----9----9----9----|--9----9----9----9----9----|-------------------|
--9----9----9----9----|--9----9----9----9----9----|-------------------|
--7----7----7----7----|--7----7----7----7----7----|-------------------|
----------------------|---------------------------|-------------------|

Almost there ...

Sign in to get your own page with links to favourite songs and more. You are just one click away...

Login with Facebook Login with Google