Log in

One click and you are in

Login with Facebook Login with Google

Why sign up and log in

Guitar Tabs Explorer
Nomeansno bass tabs for Oh no bruno

Bass tabs

Intro:
G|-----------------------------------------------8-6---------------|
D|---------------------------------------------------8-7-6-4-------|
A|--------------------------------6--6-6-6-6-6-6-------------6-4---|
E|-7--7-7-7-7-7-7--4--4-4-4-4-4-4----------------------------------|

G|---------------------------------------------------------------------|
D|---------------------------------------------------------------------|
A|--------------------------------5h6-6-6-6-6-6-6-6-5h6-6-6-6-6-6-6-6-6|
E|-7--7-7-7-7-7-7--4--4-4-4-4-4-4--------------------------------------|

G|------------------------------------8-----8-----8-----8--------------|
D|---------------------------------------------------------------------|
A|--------------------------------6-6---6-6---6-6---6-6----------------|
E|-7--7-7-7-7-7-7--4--4-4-4-4-4-4--------------------------------------|

G|----------------------------------|
D|----------------------------------|
A|----------------------------------|
E|-7--7-7-7-7-7-7--4--4-4-4-4-4-4---|


Verse:
X3
G|-------------------------------|
D|----------------------------6--|
A|--6-6-6-6-6-6-6-6-6-6-6-6-6----|
E|-------------------------------|

x1
G|------------------------8------|
D|----------------------------6--|
A|--6-6-6-6-6-6-6-6-6-6-6---6----|
E|-------------------------------|

x4
G|---------------------------------------|
D|------------------------------------3--|
A|--2h3-3-3-3-3-3-3-3-2h3-3-3-3-3-3-3----|
E|---------------------------------------|

x2
G|-------------------------------|
D|----------------------------6--|
A|--6-6-6-6-6-6-6-6-6-6-6-6-6----|
E|-------------------------------|

Chorus:
G|-----------------------------------------------8-6---------------|
D|---------------------------------------------------8-7-6-4-------|
A|--------------------------------6--6-6-6-6-6-6-------------6-4---|
E|-7--7-7-7-7-7-7--4--4-4-4-4-4-4----------------------------------|

G|---------------------------------------------------------------------|
D|---------------------------------------------------------------------|
A|--------------------------------5h6-6-6-6-6-6-6-6-5h6-6-6-6-6-6-6-6-6|
E|-7--7-7-7-7-7-7--4--4-4-4-4-4-4--------------------------------------|

G|------------------------------------8-----8-----8-----8--------------|
D|---------------------------------------------------------------------|
A|--------------------------------6-6---6-6---6-6---6-6----------------|
E|-7--7-7-7-7-7-7--4--4-4-4-4-4-4--------------------------------------|

G|----------------------------------|
D|----------------------------------|
A|----------------------------------|
E|-7--7-7-7-7-7-7--4--4-4-4-4-4-4---|


Verse:
X3
G|-------------------------------|
D|----------------------------6--|
A|--6-6-6-6-6-6-6-6-6-6-6-6-6----|
E|-------------------------------|

x1
G|------------------------8------|
D|----------------------------6--|
A|--6-6-6-6-6-6-6-6-6-6-6---6----|
E|-------------------------------|

x4
G|---------------------------------------|
D|------------------------------------3--|
A|--2h3-3-3-3-3-3-3-3-2h3-3-3-3-3-3-3----|
E|---------------------------------------|

x2
G|-------------------------------|
D|----------------------------6--|
A|--6-6-6-6-6-6-6-6-6-6-6-6-6----|
E|-------------------------------|


Chorus:
G|-----------------------------------------------8-6---------------|
D|---------------------------------------------------8-7-6-4-------|
A|--------------------------------6--6-6-6-6-6-6-------------6-4---|
E|-7--7-7-7-7-7-7--4--4-4-4-4-4-4----------------------------------|

G|---------------------------------------------------------------------|
D|---------------------------------------------------------------------|
A|--------------------------------5h6-6-6-6-6-6-6-6-5h6-6-6-6-6-6-6-6-6|
E|-7--7-7-7-7-7-7--4--4-4-4-4-4-4--------------------------------------|

G|------------------------------------8-----8-----8-----8--------------|
D|---------------------------------------------------------------------|
A|--------------------------------6-6---6-6---6-6---6-6----------------|
E|-7--7-7-7-7-7-7--4--4-4-4-4-4-4--------------------------------------|

G|----------------------------------|
D|----------------------------------|
A|----------------------------------|
E|-7--7-7-7-7-7-7--4--4-4-4-4-4-4---|

G|-------------------------------|
D|-------------------------------|
A|--6-6-6-6-6-6-6-6-6-6-6-6-6-6--|
E|-------------------------------|


Break
x4
G|-----------------|
D|-----------------|
A|--------6--5-----|
E|--13\--------6--|

G|------------------------------------------------------------------------|
D|------------------------------------------------------------------------|
A|---7h8-8-8-8-8-8-8-8-8-8-8-8-8-8-8-8-7h8-8-8-8-8-8-8-8-8-8-8-8-8-8-8-8--|
E|------------------------------------------------------------------------|

x3
G|----------------------------|
D|-14h15-15-15-15-15-15-15-15-|
A|----------------------------|
E|----------------------------|

G|------------|
D|--------6---|
A|--6-5-------|
E|------6-----|


Verse:
X3
G|-------------------------------|
D|----------------------------6--|
A|--6-6-6-6-6-6-6-6-6-6-6-6-6----|
E|-------------------------------|

x1
G|------------------------8------|
D|----------------------------6--|
A|--6-6-6-6-6-6-6-6-6-6-6---6----|
E|-------------------------------|

x4
G|---------------------------------------|
D|------------------------------------3--|
A|--2h3-3-3-3-3-3-3-3-2h3-3-3-3-3-3-3----|
E|---------------------------------------|

x2
G|-------------------------------|
D|----------------------------6--|
A|--6-6-6-6-6-6-6-6-6-6-6-6-6----|
E|-------------------------------|


Chorus:
G|-----------------------------------------------8-6---------------|
D|---------------------------------------------------8-7-6-4-------|
A|--------------------------------6--6-6-6-6-6-6-------------6-4---|
E|-7--7-7-7-7-7-7--4--4-4-4-4-4-4----------------------------------|

G|---------------------------------------------------------------------|
D|---------------------------------------------------------------------|
A|--------------------------------5h6-6-6-6-6-6-6-6-5h6-6-6-6-6-6-6-6-6|
E|-7--7-7-7-7-7-7--4--4-4-4-4-4-4--------------------------------------|

G|------------------------------------8-----8-----8-----8--------------|
D|---------------------------------------------------------------------|
A|--------------------------------6-6---6-6---6-6---6-6----------------|
E|-7--7-7-7-7-7-7--4--4-4-4-4-4-4--------------------------------------|

G|----------------------------------|
D|----------------------------------|
A|----------------------------------|
E|-7--7-7-7-7-7-7--4--4-4-4-4-4-4---|

G|-------------------------------|
D|-------------------------------|
A|--6-6-6-6-6-6-6-6-6-6-6-6-6-6--|
E|-------------------------------|

G|--------------------------------------------------------------------------------|
D|--------------------------------------------------------------------------------|
A|--------------------------------------------------------------------------------|
E|--6-6-6-6-6-6-6-6-6-6-6-6-6-6-6-6-6-6-6-6-6-6-6-6-6-6-6-6-6-6-6-6-6-6-6-6-6-6-6-|

G|--------------------------------------------------------------------------------|
D|--------------------------------------------------------------------------------|
A|--------------------------------------------------------13-13-13-13-13-13-13\--|
E|--6-6-6-6-6-6-6-6-6-6-6-6-6-6-6-6-6-6-6-6-6-6-6-6-6-6-6-------------------------|


Chorus:
G|-----------------------------------------------8-6---------------|
D|---------------------------------------------------8-7-6-4-------|
A|--------------------------------6--6-6-6-6-6-6-------------6-4---|
E|-7--7-7-7-7-7-7--4--4-4-4-4-4-4----------------------------------|

G|---------------------------------------------------------------------|
D|---------------------------------------------------------------------|
A|--------------------------------5h6-6-6-6-6-6-6-6-5h6-6-6-6-6-6-6-6-6|
E|-7--7-7-7-7-7-7--4--4-4-4-4-4-4--------------------------------------|

G|------------------------------------8-----8-----8-----8--------------|
D|---------------------------------------------------------------------|
A|--------------------------------6-6---6-6---6-6---6-6----------------|
E|-7--7-7-7-7-7-7--4--4-4-4-4-4-4--------------------------------------|

G|----------------------------------|
D|----------------------------------|
A|----------------------------------|
E|-7--7-7-7-7-7-7--4--4-4-4-4-4-4---|

x2
G|----------------------------------------------------------------------|
D|----------------------------------------------------------------------|
A|--6-6-6-6-6-6-6-6-6-6-6-6-6-6-6-6-6-6-6-2-2-2-2-2-2-2-2-2-2-2-2-2-2-2-|
E|----------------------------------------------------------------------|

G|----------------------------------------------------|
D|----------------------------------------------------|
A|--5h6-6-6--6-6-6--5h6-6-6--6-6-6--5h6-6-6--6-6-6--6-|
E|----------------------------------------------------|


************************************

| h Hammer-on
| \ Slide down

Almost there ...

Sign in to get your own page with links to favourite songs and more. You are just one click away...

Login with Facebook Login with Google