Log in

One click and you are in

Login with Facebook Login with Google

Why sign up and log in

Guitar Tabs Explorer
Nomeansno guitar tabs for Happy bridge

Guitar tabs

Nomeansno - Happy Bridge guitar tab


INTRO
A chord diagramE MajorE||------------||-------------------------------------------|
A chord diagramBB||------------||-------------------------------------------|
A chord diagramG+G||------------||*------------------------------------------|
A chord diagramD MajorD||------------||*------------5p-0-6p-0-5p-0-----------5p-0-|
A chord diagramA augmentedA||--6---------||---0-5h-6p-0----------------0-5h-6p-0------|
A chord diagramE MajorE||--5---------||-------------------------------------------|

 4x
-------------------------------------------||----------------------------------|
-------------------------------------------||----------------------------------|
------------------------------------------*||----------------------------------|
------------5p-0-6p-0-5p-0-----------5p-0-*||--------------------0-2---3-0-2---|
--0-5h-6p-0----------------0-5h-6p-0-------||--------0-2---0-2-3-----3-------3-|
-------------------------------------------||--0-2-3-----3---------------------|

-----------------------------------||---------------------------------------|
-----------------------------------||---------------------------------------|
--------------------0-1---0-1------||*--------------------------------------|
--------0-1---0-1-2-----2-----2p-0-||*--0-4p-0-0-4p-0-0-4p-0-0-4p-0-0-4h-5--|
--0-1-2-----2----------------------||---------------------------------------|
-----------------------------------||---------------------------------------|

MAIN THEME
4x
-----------------------------------------||----------------------------|
-----------------------------------------||----------------------------|
----------------------------------------*||--7--7-7-7--7-7--7-7--7--7--|
--0-4p-0-0-4p-0-0-4p-0-0-4p-0-----------*||--0--0-0-0--0-0--0-0--0--0--|
------------------------------2p-0-------||----------------------------|
-----------------------------------2p-0--||----------------------------|

BRIDGE
-----------------------------|----------------------------|
-----------------------------|----------------------------|
--7--7-7-7--7-7--7-7--9-9-9--|--7--7-7-7--7-7--7-7--7--7--|
--0--0-0-0--0-0--0-0--0-0-0--|--0--0-0-0--0-0--0-0--0--0--|
-----------------------------|----------------------------|
-----------------------------|----------------------------|

-----------------------------||---------------------------|
-----------------------------||---------------------------|
--7--7-7-7--7-7--7-7--9-9-9--||*--7--7--7--7--7--7--7--7--|
--0--0-0-0--0-0--0-0--0-0-0--||*--0--0--0--0--0--0--0--0--|
-----------------------------||---------------------------|
-----------------------------||---------------------------|

----------------------------||---------------------------------------|
----------------------------||---------------------------------------|
--7--7--7--7--11--9--11----*||*--------------------------------------|
--0--0--0--0---0--0---0----*||*--0-4p-0-0-4p-0-0-4p-0-0-4p-0-0-4h-5--|
---------------9--7---9-----||---------------------------------------|
----------------------------||---------------------------------------|

MAIN THEME
-----------------------------------------||----------------------------|
-----------------------------------------||----------------------------|
----------------------------------------*||--7--7-7-7--7-7--7-7--7--7--|
--0-4p-0-0-4p-0-0-4p-0-0-4p-0-----------*||--0--0-0-0--0-0--0-0--0--0--|
------------------------------2p-0-------||----------------------------|
-----------------------------------2p-0--||----------------------------|


BRIDGE
-------------------------------|--------------------------------------|
-------------------------------|--------------------------------------|
--7--7-6-6s--4-4s--2-2--2-2----|--9-11-11-11-11--11-11--11-9--11--12--|
--0--0-0-0---0-0---0-0--0-0--0-|--0--0--0--0--0---0--0---0-0---0---0--|
-------------------------------|--------------------------------------|
-------------------------------|--------------------------------------|

--------------------------------|------------------------------|
--------------------------------|------------------------------|
--11--9--11--11S-14--L----14----|--17---16---14---17---16--14--|
---0--0---0---0---0--L-----0----|---0----0----0----0----0---0--|
--------------------------------|------------------------------|
--------------------------------|------------------------------|

------------------------------|
------------------------------|
--17---16---14----16--17---L--|
---0----0----0-----0---0---0--|
------------------------------|
------------------------------|

|----------------------------------------------------||
|---17-19-19-19-19-19-19-19-17-19-19-19-19-19-19-19--||
|*--------------------------------------------------*||
|*--------------------------------------------------*||
|----------------------------------------------------||
|----------------------------------------------------||

--17--17-17-17-17-17-17-17-17--17-17-17-17-17-17-17-|
--17h-19-19-19-19-19-19-19-17h-19-19-19-19-19-19-19-|
----------------------------------------------------|
----------------------------------------------------|
----------------------------------------------------|
----------------------------------------------------|

--17--17-17-17-17-17-17-17-17--17-17-17-17-17-17-17-|
--17h-19-19-19-19-19-19-19-17h-19-19-19-19-19-19-19-|
----------------------------------------------------|
----------------------------------------------------|
----------------------------------------------------|
----------------------------------------------------|

Segue to 'Kill Everyone Now'
------------------------------||
------------------------------||
------------------------------||
--8-8-8-8-8--6--7-7-7-7-7--6--||
--8-8-8-8-8--6--7-7-7-7-7--6--||
--6-6-6-6-6--4--5-5-5-5-5--4--||

Almost there ...

Sign in to get your own page with links to favourite songs and more. You are just one click away...

Login with Facebook Login with Google