Log in

One click and you are in

Login with Facebook Login with Google

Why sign up and log in

Guitar Tabs Explorer
Noise Pollution guitar tabs for No pride

Guitar tabs

A chord diagramE MajorE Standard tuning (EADGBE)


Intro
e---------------|
B---------------|
G---------------|
D-4---7---2---4-|  x2
A-4---7---2---4-|
E-2---5---0---2-|

Chorus
e-------------------------------------------------------------------------|
B-------------------------------------------------------------------------|
G-------------------------------------------------------------------------|
D-7-7-7-7-7-7-7-7-2-2-2-2-2-2-2-2-4-4-X-X-X-4-4-X-X-X-4-4-X-X-X-4-4-X-X-X-|  x2
A-7-7-7-7-7-7-7-7-2-2-2-2-2-2-2-2-4-4-X-X-X-4-4-X-X-X-4-4-X-X-X-4-4-X-X-X-|
E-5-5-5-5-5-5-5-5-0-0-0-0-0-0-0-0-2-2-X-X-X-2-2-X-X-X-2-2-X-X-X-2-2-X-X-X-|

e-----------------------------------------------------------|
B-----------------------------------------------------------|
G-----------------------------------------------------------|
D-7-7-7-7-7-7-7-7-9-9-9-9-9-9-9-9-12-12-12-12-12-12-12-12-9-|
A-7-7-7-7-7-7-7-7-9-9-9-9-9-9-9-9-12-12-12-12-12-12-12-12-9-|
E-5-5-5-5-5-5-5-5-7-7-7-7-7-7-7-7-10-10-10-10-10-10-10-10-7-|

e---------------------------------|
B---------------------------------|
G---------------------------------|
D-4-4-X-X-X-4-4-X-X-X-4-4-X-X-X-4-|
A-4-4-X-X-X-4-4-X-X-X-4-4-X-X-X-4-|
E-2-2-X-X-X-2-2-X-X-X-2-2-X-X-X-2-|

    .......P.M...........   .........P.M.........   .........P.M.........   .........P.M.........
e------------------------------------------------------------------------------------------------|
B------------------------------------------------------------------------------------------------|
G------------------------------------------------------------------------------------------------|
D-4-X-X-4-X-X-4-X-X-4-X-X- 7-X-X-7-X-X-7-X-X-7-X-X-2-X-X-2-X-X-2-X-X-2-X-X-4-X-X-4-X-X-4-X-X-4-X-X|  x2
A-4-X-X-4-X-X-4-X-X-4-X-X-7-X-X-7-X-X-7-X-X-7-X-X-2-X-X-2-X-X-2-X-X-2-X-X-4-X-X-4-X-X-4-X-X-4-X-X|
E-2-X-X-2-X-X-2-X-X-2-X-X-5-X-X-5-X-X-5-X-X-5-X-X-0-X-X-0-X-X-0-X-X-0-X-X-2-X-X-2-X-X-2-X-X-2-X-X|


Chorus
e-------------------------------------------------------------------------|
B-------------------------------------------------------------------------|
G-------------------------------------------------------------------------|
D-7-7-7-7-7-7-7-7-2-2-2-2-2-2-2-2-4-4-X-X-X-4-4-X-X-X-4-4-X-X-X-4-4-X-X-X-|  x2
A-7-7-7-7-7-7-7-7-2-2-2-2-2-2-2-2-4-4-X-X-X-4-4-X-X-X-4-4-X-X-X-4-4-X-X-X-|
E-5-5-5-5-5-5-5-5-0-0-0-0-0-0-0-0-2-2-X-X-X-2-2-X-X-X-2-2-X-X-X-2-2-X-X-X-|

e-----------------------------------------------------------|
B-----------------------------------------------------------|
G-----------------------------------------------------------|
D-7-7-7-7-7-7-7-7-9-9-9-9-9-9-9-9-12-12-12-12-12-12-12-12-9-|
A-7-7-7-7-7-7-7-7-9-9-9-9-9-9-9-9-12-12-12-12-12-12-12-12-9-|
E-5-5-5-5-5-5-5-5-7-7-7-7-7-7-7-7-10-10-10-10-10-10-10-10-7-|


Solo
e---------------------------------------------------------------------------------------------|
B---------------------------------------------------------------------------------------------|
G-11-11-11-11-11-11-11-11-11-11-11-11-11-11-11-11-14-14-14-14-14-14-14-14-9-9-9-9-16-16-16-16-|
D-11-11-11-11-11-11-11-11-11-11-11-11-11-11-11-11-14-14-14-14-14-14-14-14-9-9-9-9-16-16-16-16-|
A---------------------------------------------------------------------------------------------|
E---------------------------------------------------------------------------------------------|

e-------------------------------------------------------------------------------------------------|
B-------------------------------------------------------------------------------------------------|
G-11-11-11-11-11-11-11-11-11-11-11-11-11-11-11-11-14-14-14-14-14-14-14-14-16-16-16-16-16-16-16-16-|
D-11-11-11-11-11-11-11-11-11-11-11-11-11-11-11-11-14-14-14-14-14-14-14-14-16-16-16-16-16-16-16-16-|
A-------------------------------------------------------------------------------------------------|
E-------------------------------------------------------------------------------------------------|


Chorus
e-------------------------------------------------------------------------|
B-------------------------------------------------------------------------|
G-------------------------------------------------------------------------|
D-7-7-7-7-7-7-7-7-2-2-2-2-2-2-2-2-4-4-X-X-X-4-4-X-X-X-4-4-X-X-X-4-4-X-X-X-|  x2
A-7-7-7-7-7-7-7-7-2-2-2-2-2-2-2-2-4-4-X-X-X-4-4-X-X-X-4-4-X-X-X-4-4-X-X-X-|
E-5-5-5-5-5-5-5-5-0-0-0-0-0-0-0-0-2-2-X-X-X-2-2-X-X-X-2-2-X-X-X-2-2-X-X-X-|

e------------------------------------------------------------------|
B------------------------------------------------------------------|
G------------------------------------------------------------------|
D-7-7-7-7-7-7-7-7-9-9-9-9-9-9-9-9-12-12-12-12-12-12-12-12-9------4-|
A-7-7-7-7-7-7-7-7-9-9-9-9-9-9-9-9-12-12-12-12-12-12-12-12-9------4-|
E-5-5-5-5-5-5-5-5-7-7-7-7-7-7-7-7-10-10-10-10-10-10-10-10-7------2-|

Almost there ...

Sign in to get your own page with links to favourite songs and more. You are just one click away...

Login with Facebook Login with Google