Guitar Tabs Explorer
Noel Gallaghers High Flying Birds bass tabs for Holy mountain

Holy Mountain bass tab


5 / 5 [1 vote]


Ayreon77Author: Ayreon77

Holy Mountain bass tab by Noel Gallaghers High Flying Birds

"Holy Mountain" was the lead single from Noel Gallagher´s High Flying Birds´ third album, "Who Built the Moon?". "Holy Mountain" is written by Noel Gallagher.

Bass tabs

Print
  • Tuning: Standard tuning
  • Difficulty: Novice
-------------------------------------------------------------------
              Artist - Noel Gallagher´s High Flying Birds
             *********************************************
                          Song - Holy Mountain
                         **********************
                   Album - Who Built The Moon? (2017)
                  ************************************
                          Tabbed By - Ayreon77
                         **********************
-------------------------------------------------------------------
Tuning = Standard



INTRO
******
G|-------------|-------------|-------------|------------|
D|-------------|-------------|-------------|------------|
A|-11-11-11-11-|-11-11-11-11-|-11-11-11-11-|-11----9-10-|
E|-------------|-------------|-------------|----11------|X2


--------------------------------
00:10
VERSE 1
********
G|-------------|-------------|-------------|------------|
D|-------------|-------------|-------------|------------|
A|-11-11-11-11-|-11-11-11-11-|-11-11-11-11-|-11----9-10-|
E|-------------|-------------|-------------|----11------|X6


G|-------------|-------------|-------------|------------|
D|-------------|-------------|-------------|------------|
A|-11-11-11-11-|-11-11-11-11-|-11-11-11-11-|-11----9-11-|
E|-------------|-------------|-------------|----11------|


G|-------------|-------------|---------|---------|
D|-------------|-------------|---------|---------|
A|-------------|-------------|---------|---------|
E|-11-11-11-11-|-11-11-11-11-|-9-9-9-9-|-9-9-9-9-|


---------------------------------
00:38
CHORUS
*******
G|-------------|-------------|-------------|-------------|\
D|-------------|-------------|-------------|-------------| \
A|-11-11-11-11-|-11-11-11-11-|-------------|-------------|  \
E|-------------|-------------|-11-11-11-11-|-11-11-11-11-|   \
                                                             X4
                                                             /
G|---------|---------|-------------|------------|           /
D|---------|---------|-------------|------------|          /
A|---------|---------|-11-11-11-11-|-11----9-10-|         /
E|-9-9-9-9-|-9-9-9-9-|-------------|----11------|        /



---------------------------------
01:06
BRIDGE
*******
G|-------------|-------------|-------------|------------|
D|-11-11-11-11-|-11-11-11-11-|-11-11-11-11-|-11---------|
A|-------------|-------------|-------------|-------9-10-|
E|-------------|-------------|-------------|----11------|


G|-------------|-------------|-------------|-----------|
D|-------------|-------------|-------------|-----------|
A|-11-11-11-11-|-11-11-11-11-|-11-11-11-11-|-11-11-9-8-|
E|-------------|-------------|-------------|-----------|


G|-------------|-------------|-------------|-----------|
D|-11-11-11-11-|-11-11-11-11-|-11-11-11-11-|-11--------|
A|-------------|-------------|-------------|----8-9-10-|
E|-------------|-------------|-------------|-----------|


G|------------|------------|------------|------------|
D|------------|------------|------------|------------|
A|------------|------------|------------|-------9-10-|
E|-11-11-9-10-|-11-11-9-10-|-11-11-9-10-|-11-11------|


---------------------------------
01:20
BREAK
******
G|-------------|-------------|-------------|-------------|\
D|-------------|-------------|-------------|-------------| \
A|-11-11-11-11-|-11-11-11-11-|-------------|-------------|  \
E|-------------|-------------|-11-11-11-11-|-11-11-11-11-|   \
                                                             X2
                                                             /
G|---------|---------|-------------|------------|           /
D|---------|---------|-------------|------------|          /
A|---------|---------|-11-11-11-11-|-11----9-10-|         /
E|-9-9-9-9-|-9-9-9-9-|-------------|----11------|        /

01:34
G|-------------|-------------|-------------|------------|
D|-------------|-------------|-------------|------------|
A|-11-11-11-11-|-11-11-11-11-|-11-11-11-11-|-11----9-10-|
E|-------------|-------------|-------------|----11------|

                                             p
G|-------------|-------------|-------------11-10---p---|
D|-------------|-------------|-------11----------11-10-|
A|-11-11-11-11-|-11-11-11-11-|-11-11----11-------------|
E|-------------|-------------|-------------------------|


---------------------------------
01:41
VERSE 2
********
G|-------------|-------------|-------------|------------|\
D|-------------|-------------|-------------|------------| \
A|-11-11-11-11-|-11-11-11-11-|-11-11-11-11-|-11----9-10-|  \
E|-------------|-------------|-------------|----11------|   \
                                                             X3
                                             p              /
G|-------------|-------------|-------------11-10---p---|   /
D|-------------|-------------|-------11----------11-10-|  /
A|-11-11-11-11-|-11-11-11-11-|-11-11----11-------------| /
E|-------------|-------------|-------------------------|/

02:02
G|-------------|-------------|-------------|------------|
D|-------------|-------------|-------------|------------|
A|-11-11-11-11-|-11-11-11-11-|-11-11-11-11-|-11----9-11-|
E|-------------|-------------|-------------|----11------|


G|-------------|-------------|---------|---------|
D|-------------|-------------|---------|---------|
A|-------------|-------------|---------|---------|
E|-11-11-11-11-|-11-11-11-11-|-9-9-9-9-|-9-9-9-9-|


---------------------------------
02:09
CHORUS
*******
G|-------------|-------------|-------------|-------------|\
D|-------------|-------------|-------------|-------------| \
A|-11-11-11-11-|-11-11-11-11-|-------------|-------------|  \
E|-------------|-------------|-11-11-11-11-|-11-11-11-11-|   \
                                                             X4
                                                             /
G|---------|---------|-------------|------------|           /
D|---------|---------|-------------|------------|          /
A|---------|---------|-11-11-11-11-|-11----9-10-|         /
E|-9-9-9-9-|-9-9-9-9-|-------------|----11------|        /


---------------------------------
02:38
BRIDGE
*******
G|-------------|-------------|-------------|------------|
D|-11-11-11-11-|-11-11-11-11-|-11-11-11-11-|-11---------|
A|-------------|-------------|-------------|-------9-10-|
E|-------------|-------------|-------------|----11------|


G|-------------|-------------|-------------|-----------|
D|-------------|-------------|-------------|-----------|
A|-11-11-11-11-|-11-11-11-11-|-11-11-11-11-|-11-11-9-8-|
E|-------------|-------------|-------------|-----------|


G|-------------|-------------|-------------|-----------|
D|-11-11-11-11-|-11-11-11-11-|-11-11-11-11-|-11--------|
A|-------------|-------------|-------------|----8-9-10-|
E|-------------|-------------|-------------|-----------|


G|------------|------------|------------|------------|
D|------------|------------|------------|------------|
A|------------|------------|------------|-------9-10-|
E|-11-11-9-10-|-11-11-9-10-|-11-11-9-10-|-11-11------|


---------------------------------
02:52
BREAK
******
G|-------------|-------------|-------------|-------------|\
D|-------------|-------------|-------------|-------------| \
A|-11-11-11-11-|-11-11-11-11-|-------------|-------------|  \
E|-------------|-------------|-11-11-11-11-|-11-11-11-11-|   \
                                                             X2
                                                             /
G|---------|---------|-------------|------------|           /
D|---------|---------|-------------|------------|          /
A|---------|---------|-11-11-11-11-|-11----9-10-|         /
E|-9-9-9-9-|-9-9-9-9-|-------------|----11------|        /


---------------------------------
03:05
CHORUS
*******
G|-------------|-------------|-------------|-------------|\
D|-------------|-------------|-------------|-------------| \
A|-11-11-11-11-|-11-11-11-11-|-------------|-------------|  \
E|-------------|-------------|-11-11-11-11-|-11-11-11-11-|   \
                                                             X8
                                                             /
G|---------|---------|-------------|------------|           / repeat
D|---------|---------|-------------|------------|          /     and
A|---------|---------|-11-11-11-11-|-11----9-10-|         /        fade
E|-9-9-9-9-|-9-9-9-9-|-------------|----11------|        /           out...



ENJOY.............

Comment this song and these bass tabs

Do you have corrections, comments on the bass tabs, thoughts about the song or a message to the author? Write them below.