Log in

One click and you are in

Login with Facebook Login with Google

Why sign up and log in

Guitar Tabs Explorer
Noah Cyrus guitar tabs for The end of everything

Guitar tabs with lyrics

Tuning: Standard (E A D G B E)


Intro:

   A chord diagramG MajorG                 A chord diagramGsus4Gsus4             A chord diagramG MajorG                 A chord diagramG MajorG
e|-----------------|-----------------|-----------------|-----------------|
B|----3----3-----3-|----1----1-----1-|----0----0-----0-|----0----0-----0-|
G|-----------------|-----------------|-----------------|-----------------|
D|-----------------|-----------------|-----------------|-----------------|
A|-----------0h2---|-----------0h3---|-----------0h2---|-----------0h2---|
E|-3-----3---------|-3-----3---------|-3-----3---------|-3-----3---------|


Verse 1:

   A chord diagramG MajorG                 A chord diagramGsus4Gsus4             A chord diagramG MajorG                 A chord diagramG MajorG
e|-----------------|-----------------|-----------------|-----------------|
B|----3----3-----3-|----1----1-----1-|----0----0-----0-|----0----0-----0-|
G|-----------------|-----------------|-----------------|-----------------|
D|-----------------|-----------------|-----------------|-----------------|        x2
A|-----------0h2---|-----------0h3---|-----------0h2---|-----------0h2---|
E|-3-----3---------|-3-----3---------|-3-----3---------|-3-----3---------|
  Everyone   you     love  is  gonna die
  but darlin’ so is everything, don’t cry

   A chord diagramA minorAm                A chord diagramG/BG/B               A chord diagramC majorC                 A chord diagramC majorC
e|-----------------|-----------------|-----------------|-----------------|
B|----1----1-----1-|-----3----3---3--|----1----1-----1-|-----------------|
G|-----------------|-----------------|-----------------|-----------------|
D|-----------0h2---|------------0----|-----------0h2---|-----------------|
A|-0-----0---------|--2-----2--------|-3-----3---------|-3---------------|
E|-----------------|-----------------|-----------------|-----------------|
   The stars will blink out one-by-one in time

   A chord diagramG MajorG                 A chord diagramGsus4Gsus4             A chord diagramG MajorG                 A chord diagramG MajorG
e|-----------------|-----------------|-----------------|-----------------|
B|----3----3-----3-|----1----1-----1-|----0----0-----0-|----0----0-----0-|
G|-----------------|-----------------|-----------------|-----------------|
D|-----------------|-----------------|-----------------|-----------------|
A|-----------0h2---|-----------0h3---|-----------0h2---|-----------0h2---|
E|-3-----3---------|-3-----3---------|-3-----3---------|-3-----3---------|
  Yeah everyone you love is  gonna  die


Verse 2:

   A chord diagramG MajorG                 A chord diagramGsus4Gsus4             A chord diagramG MajorG                 A chord diagramG MajorG
e|-----------------|-----------------|-----------------|-----------------|
B|----3----3-----3-|----1----1-----1-|----0----0-----0-|----0----0-----0-|
G|-----------------|-----------------|-----------------|-----------------|
D|-----------------|-----------------|-----------------|-----------------|        x2
A|-----------0h2---|-----------0h3---|-----------0h2---|-----------0h2---|
E|-3-----3---------|-3-----3---------|-3-----3---------|-3-----3---------|
  Everything you fear is gonna end
  All your hate and hurt lost to the wind

   A chord diagramA minorAm                A chord diagramG/BG/B               A chord diagramC majorC                 A chord diagramC majorC
e|-----------------|-----------------|-----------------|-----------------|
B|----1----1-----1-|-----3----3---3--|----1----1-----1-|----1----1-----1-|
G|-----------------|-----------------|-----------------|-----------------|
D|-----------0h2---|------------0----|-----------0h2---|-----------0h2---|
A|-0-----0---------|--2-----2--------|-3-----3---------|-3-----3---------|
E|-----------------|-----------------|-----------------|-----------------|
  And it’s hard, I know the universe can be a jealous friend

  A chord diagramG MajorG                  A chord diagramGsus4Gsus4             A chord diagramG MajorG                 A chord diagramG MajorG
e|-----------------|-----------------|-----------------|-----------------|
B|----3----3-----3-|----1----1-----1-|----0----0-----0-|----0----0-----0-|
G|-----------------|-----------------|-----------------|-----------------|
D|-----------------|-----------------|-----------------|-----------------|
A|-----------0h2---|-----------0h3---|-----------0h2---|-----------0h2---|
E|-3-----3---------|-3-----3---------|-3-----3---------|-3-----3---------|
  But everything you fear is  gonna end



Chorus:

   A chord diagramC majorC                 A chord diagramC/BC/B               A chord diagramA minorAm                A chord diagramAm/GAm/G
e|-----------------|-----------------|-----------------|-----------------|
B|----1----1-----1-|----1----1-----1-|----1----1-----1-|----1----1-----1-|
G|-----------------|-----------------|-----------------|-----------------|
D|-----------0h2---|-----------0h2---|-----------0h2---|-----------0h2---|
A|-3-----3---------|-2-----2---------|-0-----0---------|-----------------|
E|-----------------|-----------------|-----------------|-3-----3---------|
  And there might not be a sadder thing than watching Saturn lose her rings

   A chord diagramD MajorD                 A chord diagramD7D7                A chord diagramG MajorG                 A chord diagramG MajorG
e|-----------------|-----------------|-----------------|-----------------|
B|----3----3-----3-|----1----1-----1-|----0----0-----0-|----0----0-----0-|
G|-----------0h2---|-----------0h2---|-----------------|-----------------|
D|-0-----0---------|-0-----0---------|-----------------|-----------------|
A|-----------------|-----------------|-----------0h2---|-----------0h2---|
E|-----------------|-----------------|-3-----3---------|-3-----3---------|
  and black holes slowly dancing in the dark

   A chord diagramC majorC                 A chord diagramC/BC/B               A chord diagramA minorAm                A chord diagramAm/GAm/G
e|-----------------|-----------------|-----------------|-----------------|
B|----1----1-----1-|----1----1-----1-|----1----1-----1-|----1----1-----1-|
G|-----------------|-----------------|-----------------|-----------------|
D|-----------0h2---|-----------0h2---|-----------0h2---|-----------0h2---|
A|-3-----3---------|-2-----2---------|-0-----0---------|-----------------|
E|-----------------|-----------------|-----------------|-3-----3---------|
  It’s a song that they were born to sing about the end of everything

   A chord diagramD MajorD                 A chord diagramD7D7                A chord diagramG MajorG                 A chord diagramG MajorG
e|-----------------|-----------------|-----------------|-----------------|
B|----3----3-----3-|----1----1-----1-|----0----0-----0-|-0---------------|
G|-----------0h2---|-----------0h2---|-----------------|-0---------------|
D|-0-----0---------|-0-----0---------|-----------------|-0---------------|
A|-----------------|-----------------|-----------0h2---|-2---------------|
E|-----------------|-----------------|-3-----3---------|-3---------------|
  until it all goes up in one last spark



Verse 3:

  A chord diagramG MajorG                 A chord diagramGsus4Gsus4              A chord diagramG MajorG                 A chord diagramG MajorG
e|-----------------|-----------------|-----------------|-----------------|
B|----3----3-----3-|----1----1-----1-|----0----0-----0-|----0----0-----0-|
G|-----------------|-----------------|-----------------|-----------------|
D|-----------------|-----------------|-----------------|-----------------|        x2
A|-----------0h2---|-----------0h3---|-----------0h2---|-----------0h2---|
E|-3-----3---------|-3-----3---------|-3-----3---------|-3-----3---------|
  Everyone   you   love is gonna die
  but so is everything so wipe your eyes

   A chord diagramA minorAm                A chord diagramG/BG/B               A chord diagramC majorC                 A chord diagramC majorC
e|-----------------|-----------------|-----------------|-----------------|
B|----1----1-----1-|-----3----3---3--|----1----1-----1-|-----------------|
G|-----------------|-----------------|-----------------|-----------------|
D|-----------0h2---|------------0----|-----------0h2---|-----------------|
A|-0-----0---------|--2-----2--------|-3-----3---------|-3---------------|
E|-----------------|-----------------|-----------------|-----------------|
  You know nothin’ lasts forever but lord, we try

  A chord diagramG MajorG                  A chord diagramGsus4Gsus4             A chord diagramG MajorG                 A chord diagramG MajorG
e|-----------------|-----------------|-----------------|-----------------|
B|----3----3-----3-|----1----1-----1-|----0----0-----0-|----0----0-----0-|
G|-----------------|-----------------|-----------------|-----------------|
D|-----------------|-----------------|-----------------|-----------------|
A|-----------0h2---|-----------0h3---|-----------0h2---|-----------0h2---|
E|-3-----3---------|-3-----3---------|-3-----3---------|-3-----3---------|
  Everyone you love is gonna die



Chorus:

   A chord diagramC majorC                 A chord diagramC/BC/B               A chord diagramA minorAm                A chord diagramAm/GAm/G
e|-----------------|-----------------|-----------------|-----------------|
B|----1----1-----1-|----1----1-----1-|----1----1-----1-|----1----1-----1-|
G|-----------------|-----------------|-----------------|-----------------|
D|-----------0h2---|-----------0h2---|-----------0h2---|-----------0h2---|
A|-3-----3---------|-2-----2---------|-0-----0---------|-----------------|
E|-----------------|-----------------|-----------------|-3-----3---------|
  All the saints and sinners are the same We’re blessed then we obliterate

   A chord diagramD MajorD                 A chord diagramD7D7                A chord diagramG MajorG                 A chord diagramG MajorG
e|-----------------|-----------------|-----------------|-----------------|
B|----3----3-----3-|----1----1-----1-|----0----0-----0-|----0----0-----0-|
G|-----------0h2---|-----------0h2---|-----------------|-----------------|
D|-0-----0---------|-0-----0---------|-----------------|-----------------|
A|-----------------|-----------------|-----------0h2---|-----------0h2---|
E|-----------------|-----------------|-3-----3---------|-3-----3---------|
  And that’s how it was written from the start

   A chord diagramC majorC                 A chord diagramC/BC/B               A chord diagramA minorAm                A chord diagramAm/GAm/G
e|-----------------|-----------------|-----------------|-----------------|
B|----1----1-----1-|----1----1-----1-|----1----1-----1-|----1----1-----1-|
G|-----------------|-----------------|-----------------|-----------------|
D|-----------0h2---|-----------0h2---|-----------0h2---|-----------0h2---|
A|-3-----3---------|-2-----2---------|-0-----0---------|-----------------|
E|-----------------|-----------------|-----------------|-3-----3---------|
  It’s a song that we were born to sing about the end of everything

   A chord diagramD MajorD                 A chord diagramD7D7                A chord diagramG MajorG                 A chord diagramG MajorG
e|-----------------|-----------------|-----------------|-----------------|
B|----3----3-----3-|----1----1-----1-|----0----0-----0-|-0---------------|
G|-----------0h2---|-----------0h2---|-----------------|-0---------------|
D|-0-----0---------|-0-----0---------|-----------------|-0---------------|
A|-----------------|-----------------|-----------0h2---|-2---------------|
E|-----------------|-----------------|-3-----3---------|-3---------------|
  until it all goes up in one last spark



Outro:

  A chord diagramG MajorG                 A chord diagramGsus4Gsus4              A chord diagramG MajorG                 A chord diagramG MajorG
e|-----------------|-----------------|-----------------|-----------------|
B|----3----3-----3-|----1----1-----1-|----0----0-----0-|----0----0-----0-|
G|-----------------|-----------------|-----------------|-----------------|
D|-----------------|-----------------|-----------------|-----------------|        x2
A|-----------0h2---|-----------0h3---|-----------0h2---|-----------0h2---|
E|-3-----3---------|-3-----3---------|-3-----3---------|-3-----3---------|
  Everyone   you  love is gonna die
  So don’t you let the moment pass you by

   A chord diagramC majorC                 A chord diagramC/BC/B               A chord diagramA minorAm                A chord diagramD7D7
e|-----------------|-----------------|-----------------|-----------------|
B|----1----1-----1-|----1----1-----1-|----1----1-----1-|----1------------|
G|-----------------|-----------------|-----------------|------2----------|
D|-----------0h2---|-----------0h2---|-----------0h2---|--0--------------|
A|-3-----3---------|-2-----2---------|-0-----0---------|-----------------|
E|-----------------|-----------------|-----------------|-----------------|
  and man there really ain’t no sadder thing there really ain’t no sweeter thing


************************************

| h  Hammer-on

************************************

Other versions of The End Of Everything

The end of everythingChords

↓ Add and view comments below ↓

What do you think about this song and these tabs?

Add your comments, questions, rant or a thumbs up below.

Almost there ...

Sign in to get your own page with links to favourite songs and more. You are just one click away...

Login with Facebook Login with Google