Log in

One click and you are in

Login with Facebook Login with Google

Why sign up and log in

Guitar Tabs Explorer
No Fun At All guitar chords for Wow and i say wow

Guitar chords

Intro: 2x

E|----------------------------------------------------------------------|
B|----------------------------------------------------------------------|
G|----------------------------------------------------------------------|
D|---------10-12-14---------10-12-14---------10-12-1414141414-12-14-12--|
A|-12121212-8-10-12-12121212-8-10-12-12121212-8-10-1212121212-10-12-10--|
E|-10101010---------10101010---------10101010---------------------------|
Verse 1: 4x

guitar 1
E|----------------------------------------------------------------------|
B|----------------------------------------------------------------------|
G|----------------------------------------------------------------------|
D|---------------10-9-10-9-7-9------------------------------------------|
A|-12121212121212-8-7--8-7-5-7------------------------------------------|
E|-10101010101010-------------------------------------------------------|

guitar 2
E|--------------------------------------------------------------------|
B|--------------------------------------------------------------------|
G|-10\9-10\9-7-9------------------------------------------------------|
D|--------------------------------------------------------------------|
A|--------------------------------------------------------------------|
E|--------------------------------------------------------------------|


Bridge 2x:

E|--------------------------------------------------------------------|
B|--------------------------------------------------------------------|
G|---------------------7777-101010101010-7777-101010101010------------|
D|---------------------5555--8-8-8-8-8-8-5555--8-8-8-8-8-8------------|
A|-888888-101010101010------------------------------------------------|
E|-666666--8-8-8-8-8-8------------------------------------------------|

E|--------------------------------------------------------------------|
B|--------------------------------------------------------------------|
G|--------------------------------------------------------------------|
D|--------------------------------------------------------------------|
A|-8-888888-101010101010-777777-8888888-101010101010------------------|
E|-6-666666--8-8-8-8-8-8-555555-6666666--8-8-8-8-8-8------------------|

Chorus:

E|--------------------------------------------------------------------|
B|--------------------------------------------------------------------|
G|--------------------------------------------------------------------|
D|-7-7-------555-7-7-----10-------------------------------------------|
A|-5-5-8-8-3-333-5-5-8-8--8-101010------------------------------------|
E|-----6-6-1---------6-6-----8-8-8------------------------------------|

E|--------------------------------------------------------------------|
B|--------------------------------------------------------------------|
G|--------------------------------------------------------------------|
D|-7-7-------555-7-7-----10----------7X7X7----------------------------|
A|-5-5-8-8-3-333-5-5-8-8--8-101010---5X5X5----------------------------|
E|-----6-6-1---------6-6-----8-8-8------------------------------------|


Intro 2x:

E|----------------------------------------------------------------------|
B|----------------------------------------------------------------------|
G|----------------------------------------------------------------------|
D|---------10-12-14---------10-12-14---------10-12-1414141414-12-14-12--|
A|-12121212-8-10-12-12121212-8-10-12-12121212-8-10-1212121212-10-12-10--|
E|-10101010---------10101010---------10101010---------------------------|


Verse 1 - 4x:

guitar 1
E|----------------------------------------------------------------------|
B|----------------------------------------------------------------------|
G|----------------------------------------------------------------------|
D|---------------10-9-10-9-7-9------------------------------------------|
A|-12121212121212-8-7--8-7-5-7------------------------------------------|
E|-10101010101010-------------------------------------------------------|

guitar 2
E|--------------------------------------------------------------------|
B|--------------------------------------------------------------------|
G|-10\9-10\9-7-9------------------------------------------------------|
D|--------------------------------------------------------------------|
A|--------------------------------------------------------------------|
E|--------------------------------------------------------------------|


Bridge - 2x:

E|--------------------------------------------------------------------|
B|--------------------------------------------------------------------|
G|---------------------7777-101010101010-7777-101010101010------------|
D|---------------------5555--8-8-8-8-8-8-5555--8-8-8-8-8-8------------|
A|-888888-101010101010------------------------------------------------|
E|-666666--8-8-8-8-8-8------------------------------------------------|

E|--------------------------------------------------------------------|
B|--------------------------------------------------------------------|
G|--------------------------------------------------------------------|
D|--------------------------------------------------------------------|
A|-8-888888-101010101010-777777-8888888-101010101010------------------|
E|-6-666666--8-8-8-8-8-8-555555-6666666--8-8-8-8-8-8------------------|


Chorus:

E|--------------------------------------------------------------------|
B|--------------------------------------------------------------------|
G|--------------------------------------------------------------------|
D|-7-7-------555-7-7-----10-------------------------------------------|
A|-5-5-8-8-3-333-5-5-8-8--8-101010------------------------------------|
E|-----6-6-1---------6-6-----8-8-8------------------------------------|

E|--------------------------------------------------------------------|
B|--------------------------------------------------------------------|
G|--------------------------------------------------------------------|
D|-7-7-------555-7-7-----10----------7X7X7----------------------------|
A|-5-5-8-8-3-333-5-5-8-8--8-101010---5X5X5----------------------------|
E|-----6-6-1---------6-6-----8-8-8------------------------------------|


Solo:

guitar 2
E|--------------------------------------------------------------------|
B|--------------------------------------------------------------------|
G|-777777-10-9---777777-10-9---777777-10-9---555555-6-7---------------|
D|------------10------------10------------10--------------------------|
A|--------------------------------------------------------------------|
E|--------------------------------------------------------------------|

E|--------------------------------------------------------------------|
B|--------------------------------------------------------------------|
G|-777777-10-9---777777-10-9---777777-10-9---555555-6-7---------------|
D|------------10------------10------------10--------------------------|
A|--------------------------------------------------------------------|
E|--------------------------------------------------------------------|

E|--------------------------------------------------------------------|
B|--------------------------------------------------------------------|
G|-57-57-57-57-57-57-57-57-57-555555-6-7-57-57-57-57/999999999999/1212|
D|--------------------------------------------------------------------|
A|--------------------------------------------------------------------|
E|--------------------------------------------------------------------|

E|--------------------------------------------------------------------|
B|--------------------------------------------------------------------|
G|121212121212-151515-17-19-------------------------------------------|
D|--------------------------------------------------------------------|
A|--------------------------------------------------------------------|
E|--------------------------------------------------------------------|

guitar 1
E|--------------------------------------------------------------------|
B|--------------------------------------------------------------------|
G|--------------------------------------------------------------------|
D|--------------------------------------------------------------------|
A|-121212121212-88888888-10101010101010--7777777777-------------------|
E|-101010101010-66666666--8-8-8-8-8-8-8--5555555555-------------------|


Bridge - 2x:

E|--------------------------------------------------------------------|
B|--------------------------------------------------------------------|
G|---------------------7777-101010101010-7777-101010101010------------|
D|---------------------5555--8-8-8-8-8-8-5555--8-8-8-8-8-8------------|
A|-888888-101010101010------------------------------------------------|
E|-666666--8-8-8-8-8-8------------------------------------------------|

E|--------------------------------------------------------------------|
B|--------------------------------------------------------------------|
G|--------------------------------------------------------------------|
D|--------------------------------------------------------------------|
A|-8-888888-101010101010-777777-8888888-101010101010------------------|
E|-6-666666--8-8-8-8-8-8-555555-6666666--8-8-8-8-8-8------------------|


Chorus:

E|--------------------------------------------------------------------|
B|--------------------------------------------------------------------|
G|--------------------------------------------------------------------|
D|-7-7-------555-7-7-----10-------------------------------------------|
A|-5-5-8-8-3-333-5-5-8-8--8-101010------------------------------------|
E|-----6-6-1---------6-6-----8-8-8------------------------------------|

E|--------------------------------------------------------------------|
B|--------------------------------------------------------------------|
G|--------------------------------------------------------------------|
D|-7-7-------555-7-7-----10----------7X7X7----------------------------|
A|-5-5-8-8-3-333-5-5-8-8--8-101010---5X5X5----------------------------|
E|-----6-6-1---------6-6-----8-8-8------------------------------------|

Wow And I Say Wow chords

No Fun At All guitar chords for Wow and i say wow "Wow and I say wow" is a song from Swedish punk rockers No Fun At All's 1994 debut album.

↓ Add and view comments below ↓

What do you think about this song and these chords?

Add your comments, questions, rant or a thumbs up below.

Almost there ...

Sign in to get your own page with links to favourite songs and more. You are just one click away...

Login with Facebook Login with Google