Log in

One click and you are in

Login with Facebook Login with Google

Why sign up and log in

Guitar Tabs Explorer
No Fun At All guitar tabs for Suicide machine

Guitar tabs

Key: A chord diagramA majorA

Guitar 1:
E|---------------------------------------------------------------------------|
B|---------------------------------------------------------------------------|
G|-8/10-10--------8-8-8--13-12-10--------------------------------------------|
D|-8/10-10--(4X)--8-8-8--13-12-10--------------------------------------------|
A|-6/8--8---------6-6-6--11-10-8---------------------------------------------|
E|---------------------------------------------------------------------------|

Guitar 2:

E|---------------------------------------------------------------------------|
B|----------------------9-8--------------------------------------------------|
G|-8-10-10--(4X)--8-8-8-----10-----------------------------------------------|
D|---------------------------------------------------------------------------|
A|---------------------------------------------------------------------------|
E|---------------------------------------------------------------------------|


Verse: (2X)

Guitars 1 e 2:

E|-----------------------------------------|---------------------------------|
B|-----------------------------------------|---------------------------------|
G|-10-10-10-10--8-8-8-8--6-6-6-6--8-8-8-8--|-8/10-10-------------------------|
D|-10-10-10-10--8-8-8-8--6-6-6-6--8-8-8-8--|-8/10-10---(4X)------------------|
A|-8--8--8--8---6-6-6-6--4-4-4-4--6-6-6-6--|-6/8--8--------------------------|
E|-----------------------------------------|---------------------------------|

Pré-Chorus

E|---------------------------------------------------------------------------|
B|---------------------------------------------------------------------------|
G|-6-6-6-6-6---6-6-6-6-6-6-6-6---10-10-10-10-10-10-10-10-10-10-10-10--12-13--|
D|-6-6-6-6-6-8-6-6-6-6-6-6-6-6---10-10-10-10-10-10-10-10-10-10-10-10--12-13--|
A|-4-4-4-4-4-8-4-4-4-4-4-4-4-4---8--8--8--8--8--8--8--8--8--8--8--8---10-11--|
E|-----------6---------------------------------------------------------------|

E|---------------------------------------------------------------------------|
B|---------------------------------------------------------------------------|
G|-6-6-6-6-6---6-6-6-6-6-6-6-6-----------------------------------------------|
D|-6-6-6-6-6-8-6-6-6-6-6-6-6-6---8-8-8-8-8-8-8-8-8-8-8-8-8-8-8-8-------------|
A|-4-4-4-4-4-8-4-4-4-4-4-4-4-4---8-8-8-8-8-8-8-8-8-8-8-8-8-8-8-8-------------|
E|-----------6-------------------6-6-6-6-6-6-6-6-6-6-6-6-6-6-6-6-------------|
				|-------------P.M.--------------|

Chorus: (2X)

E|---------------------------------------------------------------------------|
B|---------------------------------------------------------------------------|
G|-10-10-10-10-10-8-10-10-10-13----------------------------------------------|
D|-10-10-10-10-10-8-10-10-10-13----------------------------------------------|
A|-8--8--8--8--8--6-8--8--8--11----------------------------------------------|
E|---------------------------------------------------------------------------|

E|---------------------------------------------------------------------------|
B|---------------------------------------------------------------------------|
G|-10-10-10-10-10-10-10-10-8-8-8-8-13-13-13-13-------------------------------|
D|-10-10-10-10-10-10-10-10-8-8-8-8-13-13-13-13-------------------------------|
A|-8--8--8--8--8--8--8--8--6-6-6-6-11-11-11-11-------------------------------|
E|---------------------------------------------------------------------------|

E|-------------------------------------------------|--------------------------|
B|-------------------------------------------------|--------------------------|
G|-10-10-10-10-10-10-10-10-------------------------|--------------------------|
D|-10-10-10-10-10-10-10-10-11-11-11-11-11-11-11-11-|-10-----------------------|
A|-8--8--8--8--8--8--8--8--11-11-11-11-11-11-11-11-|-10---(14X)---------------|
E|-------------------------9--9--9--9--9--9--9--9--|-8------------------------|
						   |----P.M.----|

Intro: (2X)

Guitar 1:

E|---------------------------------------------------------------------------|
B|---------------------------------------------------------------------------|
G|-8/10-10--------8-8-8--13-12-10--------------------------------------------|
D|-8/10-10--(4X)--8-8-8--13-12-10--------------------------------------------|
A|-6/8--8---------6-6-6--11-10-8---------------------------------------------|
E|---------------------------------------------------------------------------|

Guitar 2:

E|---------------------------------------------------------------------------|
B|----------------------9-8--------------------------------------------------|
G|-8-10-10--(4X)--8-8-8-----10-----------------------------------------------|
D|---------------------------------------------------------------------------|
A|---------------------------------------------------------------------------|
E|---------------------------------------------------------------------------|


Verse: (2X)

Guitars 1 e 2:
E|-----------------------------------------|---------------------------------|
B|-----------------------------------------|---------------------------------|
G|-10-10-10-10--8-8-8-8--6-6-6-6--8-8-8-8--|-8/10-10-------------------------|
D|-10-10-10-10--8-8-8-8--6-6-6-6--8-8-8-8--|-8/10-10---(4X)------------------|
A|-8--8--8--8---6-6-6-6--4-4-4-4--6-6-6-6--|-6/8--8--------------------------|
E|-----------------------------------------|---------------------------------|

Pré-Chorus

E|---------------------------------------------------------------------------|
B|---------------------------------------------------------------------------|
G|-6-6-6-6-6---6-6-6-6-6-6-6-6---10-10-10-10-10-10-10-10-10-10-10-10--12-13--|
D|-6-6-6-6-6-8-6-6-6-6-6-6-6-6---10-10-10-10-10-10-10-10-10-10-10-10--12-13--|
A|-4-4-4-4-4-8-4-4-4-4-4-4-4-4---8--8--8--8--8--8--8--8--8--8--8--8---10-11--|
E|-----------6---------------------------------------------------------------|

E|---------------------------------------------------------------------------|
B|---------------------------------------------------------------------------|
G|-6-6-6-6-6---6-6-6-6-6-6-6-6-----------------------------------------------|
D|-6-6-6-6-6-8-6-6-6-6-6-6-6-6---8-8-8-8-8-8-8-8-8-8-8-8-8-8-8-8-------------|
A|-4-4-4-4-4-8-4-4-4-4-4-4-4-4---8-8-8-8-8-8-8-8-8-8-8-8-8-8-8-8-------------|
E|-----------6-------------------6-6-6-6-6-6-6-6-6-6-6-6-6-6-6-6-------------|
				|-------------P.M.--------------|

Chorus: (2X)

E|---------------------------------------------------------------------------|
B|---------------------------------------------------------------------------|
G|-10-10-10-10-10-8-10-10-10-13----------------------------------------------|
D|-10-10-10-10-10-8-10-10-10-13----------------------------------------------|
A|-8--8--8--8--8--6-8--8--8--11----------------------------------------------|
E|---------------------------------------------------------------------------|

E|---------------------------------------------------------------------------|
B|---------------------------------------------------------------------------|
G|-10-10-10-10-10-10-10-10-8-8-8-8-13-13-13-13-------------------------------|
D|-10-10-10-10-10-10-10-10-8-8-8-8-13-13-13-13-------------------------------|
A|-8--8--8--8--8--8--8--8--6-6-6-6-11-11-11-11-------------------------------|
E|---------------------------------------------------------------------------|

E|-------------------------------------------------|--------------------------|
B|-------------------------------------------------|--------------------------|
G|-10-10-10-10-10-10-10-10-------------------------|--------------------------|
D|-10-10-10-10-10-10-10-10-11-11-11-11-11-11-11-11-|-10-----------------------|
A|-8--8--8--8--8--8--8--8--11-11-11-11-11-11-11-11-|-10---(14X)---------------|
E|-------------------------9--9--9--9--9--9--9--9--|-8------------------------|
						   |----P.M.----|


Solo:

Guitar 1:

E|---------------------------------|-----------------------------------------|
B|---------------------------------|-----------------------------------------|
G|-10-------6-------8--------------|-------10--------------------------------|
D|-10-(16X)-6--(8X)-8--(8X)---(3X)-|-------10--(16X)-10----------------------|
A|-8--------4-------6--------------|-------8---------10----------------------|
E|---------------------------------|-----------------8-----------------------|

Guitar 2:

E|-------------------6-8-9-8-6---------|-------------------------------------|
B|-6-6-6-6-8-9-9-9-9-------------------|---6-6-6-6-8-9-9-9-9-8-6-------------|
G|---------------------------------(3X)|-------------------------5-----------|
D|-------------------------------------|-------------------------------------|
A|-------------------------------------|-------------------------------------|
E|-------------------------------------|-------------------------------------|


Chorus: (2X)

E|---------------------------------------------------------------------------|
B|---------------------------------------------------------------------------|
G|-10-10-10-10-10-8-10-10-10-13----------------------------------------------|
D|-10-10-10-10-10-8-10-10-10-13----------------------------------------------|
A|-8--8--8--8--8--6-8--8--8--11----------------------------------------------|
E|---------------------------------------------------------------------------|

E|---------------------------------------------------------------------------|
B|---------------------------------------------------------------------------|
G|-10-10-10-10-10-10-10-10-8-8-8-8-13-13-13-13-------------------------------|
D|-10-10-10-10-10-10-10-10-8-8-8-8-13-13-13-13-------------------------------|
A|-8--8--8--8--8--8--8--8--6-6-6-6-11-11-11-11-------------------------------|
E|---------------------------------------------------------------------------|

E|-------------------------------------------------|--------------------------|
B|-------------------------------------------------|--------------------------|
G|-10-10-10-10-10-10-10-10-------------------------|--------------------------|
D|-10-10-10-10-10-10-10-10-11-11-11-11-11-11-11-11-|-10-----------------------|
A|-8--8--8--8--8--8--8--8--11-11-11-11-11-11-11-11-|-10---(14X)---------------|
E|-------------------------9--9--9--9--9--9--9--9--|-8------------------------|
						   |----P.M.----|


Intro: (2X)

Guitar 1:

E|---------------------------------------------------------------------------|
B|---------------------------------------------------------------------------|
G|-8/10-10--------8-8-8--13-12-10--------------------------------------------|
D|-8/10-10--(4X)--8-8-8--13-12-10--------------------------------------------|
A|-6/8--8---------6-6-6--11-10-8---------------------------------------------|
E|---------------------------------------------------------------------------|

Guitar 2:

E|---------------------------------------------------------------------------|
B|----------------------9-8--------------------------------------------------|
G|-8-10-10--(4X)--8-8-8-----10-----------------------------------------------|
D|---------------------------------------------------------------------------|
A|---------------------------------------------------------------------------|

↓ Add and view comments below ↓

What do you think about this song and these tabs?

Add your comments, questions, rant or a thumbs up below.

Almost there ...

Sign in to get your own page with links to favourite songs and more. You are just one click away...

Login with Facebook Login with Google