Log in

One click and you are in

Login with Facebook Login with Google

Why sign up and log in

Guitar Tabs Explorer
No Fun At All bass tabs for Spirit

Bass tabs

Tuning: Standard (E A D G)

Part 1:

G||-----------------------------------------------------------------------------------------|
D||*----------------------------------------------------------------------------------------|
A||*--4--4-4--4-2--4--4-4--4-2--4--4-4--4-2--4/7--0--0-0--0--0--0-0--0--0--0-0--0--0-2-0-2--|
E||-----------------------------------------------------------------------------------------|

G|----------------------------------------------------------------------------------------|
D|----------------------------------------------------------------------------------------|
A|--4--4-4--4-2--4--4-4--4-2--4--4-4--4-2--4/7/9--0--0-0--0--0--0-0--0--0--0-0--0--6-7-6--|
E|----------------------------------------------------------------------------------------|

G|----------------------------------------------------------------------------------------------------------|
D|----------------------------------------------------------------------------------------------------------|
A|--0--0-0--0-0--2--2-2--2-2--4--4-4--4-4--4--4-4--4-4--0--0-0--0-0--2--2-2--2-2--4--4-4--4-4---------------|
E|---------------------------------------------------------------------------------------------4--4-4--4-4--|

G|----------------------------------------------------------------------------------------------------------|
D|----------------------------------------------------------------------------------------------------------|
A|--0--0-0--0-0--2--2-2--2-2--4--4-4--4-4--4--4-4--4-4--0--0-0--0-0---------------4--4-4--4-2--4--4-4--4-2--|
E|-------------------------------------------------------------------4--4-4--4-4----------------------------|

G|----------------------------------------------|---------------------------------------------|
D|----------------------------------------------|--------------------6-7-9-9-7-7-6-7-7-6-6----|
A|--4--4-4--4-2--4--4-4--4-2--4--4-4--4-2--4/7--|--7--7-7--7-7--7--7-----------------------7--|
E|----------------------------------------------|---------------------------------------------|

G|----------------------------------------------|---------------------------------------------|
D|----------------------------------------------|--------------6--6-6-------------------------|
A|--4--4-4--4-2--4--4-4--4-2--4--4-4--4-2--4/7--|--7--7-7--7-9--------9-7-----------6-9-9-7-6-|
E|----------------------------------------------|-------------------------7--7-7--7-----------|

G|----------------------------------------------|
D|----------------------------------------------|
A|--4--4-4--4-2--4--4-4--4-2--4--4-4--4-2--4/7--|
E|----------------------------------------------|

G|----------------------------------------------------------------------------------------------------------|
D|----------------------------------------------------------------------------------------------------------|
A|------------------------------------------------------0--0-0--0-0--0--0-0--0-0--4--4-4--4-4---------------|
E|--2--2-2--2-2--2--2-2--2-2--0--0-0--0-0--0--0-0--0-0-----------------------------------------4--4-4--4-4--|

                          2x
G|--------------------------------------------------||
D|--------------------------------------4/6-4-2-1--*||
A|--0--0-0--0-0-0--0-0--0-0------------------------*||
E|--------------------------4--4--4--4--------------||

Guitar Solo Base:

G|----------------------------------------------------------------------------------------------------------|
D|----------------------------------------------------------------------------------------------------------|
A|--0--0-0--0-0--2--2-2--2-2--4--4-4--4-4--4--4-4--4-4--0--0-0--0-0--2--2-2--2-2--4--4-4--4-4---------------|
E|---------------------------------------------------------------------------------------------4--4-4--4-4--|

G|----------------------------------------------------------------------------------------------------------|
D|----------------------------------------------------------------------------------------------------------|
A|--0--0-0--0-0--2--2-2--2-2--4--4-4--4-4--4--4-4--4-4---------------------------4--4-4--4-4--4--4-4--4-4\--|
E|-----------------------------------------------------5--5-5--5-5--4--4-4--4-4-----------------------------|

Bridge:

G|-6-----------------------------|--------------------------------------------------------------------------|
D|-x-----------------------------|--------------------------------------------------------------------------|
A|-4-----------------------------|--6-7-6-4--4-4--4--7-6-----------------------------------------7-6---6-4--|
E|-------------------------------|-----------------------7-5-0--0-0--0-0--5-5--4-4--5--7--7-7--7-----7------|

                             2x
G||-------------------------------------------------------||
D||*-----------------------------------------------------*||
A||*--------------4--4-4--4-4--2--2-2--2-2--7--7-7--7-7--*||
E||--0--0-0--0-0------------------------------------------||

G|--------------------------------------------------------------------------------|
D|--------------------------------------------------------------------------------|
A|--------------4--4-4--4--7-6-----------------------------------------7-6---6-4--|
E|--0--0-0--0-0----------------7-5-0--0-0--0-0--5-5--4-4--5--7--7-7--7-----7------|

Part 2:
                                                      2x
G||---------------------------------------------------------------------------------------------------------||
D||*-------------------------------------------------------------------------------------------------------*||
A||*-2--2-2--2-2--2--2-2--2-2--4--4-4--4-4--4--4-4--4-4---------------------------2--2-2--2-2--2--2-2--2-2-*||
E||-----------------------------------------------------0--0-0--0-0--0--0-0--0-0----------------------------||

G|---------------------------------------------------------------------------------------------------------|
D|---------------------------------------------------------------------------------------------------------|
A|--2--2-2--2-2--2--2-2--2-2--4--4-4--4-4--4--4-4--4-4---------------------------2--2-2--2-2---------------|
E|------------------------------------------------------0--0-0--0-0--0--0-0--0-0--------------2--2-2--2-2--|

G|---------------------------------------------------------------------------------------------------------|
D|---------------------------------------------------------------------------------------------------------|
A|------------------------------------------------------4/11--11-11--11-11--11--11-11--11-11--11--9--7--6--|
E|--4--4-4--4-4--4--4-4--4-4--4--4-4--4-4--4--4-4--4-4-----------------------------------------------------|


Ending:

G|--------------------------------------------------------------------------------------------------------|
D|--------------------------------------------------------------------------------------------------------|
A|--4--4-4--4-2--4--4-4--4-2--4--4-4--4-2--4/7-7-7--0--0-0--0-0--0--0-0--0-0--0--0-0--0-0--0--0-0--7-7-7--|
E|--------------------------------------------------------------------------------------------------------|

G|-----------------------------------------------------------------------------------------------------------|
D|-----------------------------------------------------------------------------------------------------------|
A|--4--4-4--4-2--4--4-4--4-2--4--4-4--4-2--4/7-7-7--0--0-0--0-0--0--0-0--0-0--0--0-0--0-0--0--0-0--7-7-7--4--|
E|-----------------------------------------------------------------------------------------------------------|


****************************************
| /     - slide up
| \     - slide down
| x     - muted note
| ||----||
| ||*--*|| - repeat the whole section
| ||*--*||
| ||----||
****************************************

↓ Add and view comments below ↓

What do you think about this song and these tabs?

Add your comments, questions, rant or a thumbs up below.

Almost there ...

Sign in to get your own page with links to favourite songs and more. You are just one click away...

Login with Facebook Login with Google