Log in

One click and you are in

Login with Facebook Login with Google

Why sign up and log in

Guitar Tabs Explorer
No Fun At All guitar tabs for Second best

Guitar tabs

  • Capo on 2nd
No Fun At All - Second Best (State of Flow)
    Standard Tuning EADGBE (Capo 1st fret) or Tune all strings up 1/2 step FA#D#G#CF

             -----------------------   ----------------------   ---------------------
Intro/Verses:  Amin, Cmaj, Fmaj(7) - Picked

      Amin          Cmaj                  Fmaj(7)
e|---------------|--------0----------|----0--0--------3-----0-----0------------|
B|------1--1--1--|-----------1-------|----------1------------------------------|
G|------2--2--2--|--------------0----|-------------2---------------------------|    x2
D|------2--2--2--|-----2-----------2-|----3--3--------3--3-----3---------------|
A|---0-----------|--3----------------|-----------------------------------------|
E|---------------|-------------------|-----------------------------------------|

   Amin, Cmaj, Fmaj(7) Same chords strummed downstroke

     Amin                 Cmaj                 Fmaj(7)
e|---0--0--0--0--0--0--|--0--0--0--0--0--0--|--1--1--1--1p-0--0--0--0h-1--1--1--1--|
B|---1--1--1--1--1p-0--|--1--1--1--1--1p-0--|--1--1--1--1--1--1--1--1--1--2--2--2--|
G|---2--2--2--2--2--2--|--0--0--0--0--0--0--|--2--2--2--2--2--2--2--2--2--2--3--2--|   x2
D|---2--2--2--2--2--2--|--2--2--2--2--2--2--|--3--3--3--3--3--3--3--3--3--3--3--3--|
A|---0--0--0--0--0--0--|--3--3--3--3--3--3--|--------------------------------------|
E|---------------------|--------------------|--------------------------------------|


            -----------------------------------------------------------------


1st-Verse(same as intro):

       Coming over....                  To your house I see you waiting...
       Turning over...                  All the thing i used to treasure...
                                        Second Best is not the end of life.....

       Amin          Cmaj                 Fmaj(7)
e|---------------|--------0----------|----0--0--------3-----0-----0------------|
B|------1--1--1--|-----------1-------|----------1------------------------------|
G|------2--2--2--|--------------0----|-------------2---------------------------|    x4
D|------2--2--2--|-----2-----------2-|----3--3--------3--3-----3---------------|
A|---0-----------|--3----------------|-----------------------------------------|
E|---------------|-------------------|-----------------------------------------|

Back to - Amin, Cmaj, Fmaj(7) Strummed


     Amin                 Cmaj               Fmaj(7)(h)
e|---0--0--0--0--0--0--|--0--0--0--0--0--0--|--1--1--1--1p-0--0--0--0h-1--1--1--1--|
B|---1--1--1--1--1p-0--|--1--1--1--1--1p-0--|--1--1--1--1--1--1--1--1--1--2--2--2--|
G|---2--2--2--2--2--2--|--0--0--0--0--0--0--|--2--2--2--2--2--2--2--2--2--2--3--2--|   x2
D|---2--2--2--2--2--2--|--2--2--2--2--2--2--|--3--3--3--3--3--3--3--3--3--3--3--3--|
A|---0--0--0--0--0--0--|--3--3--3--3--3--3--|--------------------------------------|
E|---------------------|--------------------|--------------------------------------|


              --------------------------------------------------------------


[2nd verse, same as the 1st. 4 times again. Only on the 4th time it hits
     a "Gmaj" at the end of the progression pre-chorus]

      "Indecision...       Tender words with hidden meanings......"
      "Got to worry......  See  the  things  I  cherish  start    to    "SLIP"...(GMAJ) ---- Chorus

       Amin          Cmaj                 Fmaj(7)                        Gmaj
e|---------------|--------0-----------|---0--0--------3-----0-----0---/--2-2-2-----------|
B|------1--1--1--|-----------1--------|---------1---------------------/--2-2-2-----------|
G|------2--2--2--|--------------0-----|------------2------------------/--0-0-0(Let Ring)-|   x4
D|------2--2--2--|-----2-----------2--|---3--3--------3--3-----3------/--0-0-0-----------|
A|---0-----------|--3-----------------|-------------------------------/--2-2-2-----------|
E|---------------|--------------------|-------------------------------/--3-3-3-----------|


         -----------------------------------------------------------------------


   Chorus:  -  Amin,  Cmaj, Gmaj, Fmaj    -

(Amin)                  (Cmaj)            (Gmaj)                            (Fmaj)
 I don't know what you want me to be...    Cuz you pushed me around till I cant even breathe...

(Amin)                  (Cmaj)            (Gmaj)                            (Fmaj)
 I dont know what you're doing to me...    You have turned me into something ugly and cheap....

(Amin)                  (Cmaj)            (Gmaj)                            (Fmaj)
 I don't know what you want me to be...    Cuz you pushed me around till I cant even breathe...

(Amin)                  (Cmaj)            (Gmaj)                            (Fmaj)
 I dont know what you're doing to me...    You have turned me into something ugly and cheap....


         -----------------------------------------------------------------------


  Back to Amin, Cmaj, Fmaj(7) Strummed


     Amin                 Cmaj                Fmaj(7)
e|---0--0--0--0--0--0--|--0--0--0--0--0--0--|--1--1--1--1p-0--0--0--0h-1--1--1--1--|
B|---1--1--1--1--1p-0--|--1--1--1--1--1p-0--|--1--1--1--1--1--1--1--1--1--2--2--2--|
G|---2--2--2--2--2--2--|--0--0--0--0--0--0--|--2--2--2--2--2--2--2--2--2--2--3--2--|   x2
D|---2--2--2--2--2--2--|--2--2--2--2--2--2--|--3--3--3--3--3--3--3--3--3--3--3--3--|
A|---0--0--0--0--0--0--|--3--3--3--3--3--3--|--------------------------------------|
E|---------------------|--------------------|--------------------------------------|

         -----------------------------------------------------------------------


3rd Verse: - Same as the others - Amin, Cmaj, A chord diagramFmaj7Fmaj7   -   x4

      Amin           Cmaj                 Fmaj(7)                         Gmaj
e|---------------|--------0-----------|---0--0--------3-----0-----0----/--2-2-2----------|
B|------1--1--1--|-----------1--------|---------1----------------------/--2-2-2----------|
G|------2--2--2--|--------------0-----|------------2-------------------/--0-0-0(Let Rng)-|    x4
D|------2--2--2--|-----2-----------2--|---3--3--------3--3-----3-------/--0-0-0----------|
A|---0-----------|--3-----------------|--------------------------------/--2-2-2----------|
E|---------------|--------------------|--------------------------------/--3-3-3----------|


     ------------------------------


2nd Chorus:  -  Amin,  Cmaj,  Gmaj,  Fmaj  -  4x


(Amin)                  (Cmaj)            (Gmaj)                            (Fmaj)
 I don't know what you want me to be...    Cuz you pushed me around till I cant even breathe...

(Amin)                  (Cmaj)            (Gmaj)                            (Fmaj)
 I dont know what you're doing to me...    You have turned me into something ugly and cheap....  x4


                                                          Palm mute(PM)  ---  Bridge ---------


     ------------------------------


Bridge:   -

 Amin(Palm mute) / Amin(x6) Cmaj(x2) G(x2) Cmaj(x6)  Fmaj(x2)  Cmaj(x1)
e|---0-------------0--------0--------0-----0---------0---------0-------------------|
B|---1-------------1--------1--------1-----1---------1---------1-------------------|
G|---2-------------2--------0--------0-----0---------2---------0-------------------|
D|---2-------------2--------2--------0-----2---------3---------2-------------------|  (1st measure)
A|---0-------------0--------3--------2-----3-------------------3-------------------|
E|-----------------------------------3---------------------------------------------|


 Amin(x3)   Cmaj(x2)..PM..Gmaj(x3)  Cmaj(x6)  Fmaj(7)(x3)   Cmaj
e|---0------0-------------0---------0---------0-------------0---------------------|
B|---1------1-------------1---------1---------1-------------1---------------------|
G|---2------0-------------0---------0---------2-------------0-(Ring)--------------|
D|---2------2-------------0---------2---------3-------------2---------------------|  (Next 3 measures)
A|---0------3-------------2---------3-----------------------3---------------------|
E|------------------------3-------------------------------------------------------|


               -----------------------------------------------------------


(3rd Chorus) - Amin,  Cmaj,  Gmaj,  Fmaj   -   4x   -   (Slight PM on end of last measure before Outro)


(Amin)                  (Cmaj)            (Gmaj)                            (Fmaj)
 I don't know what you want me to be...    Cuz you pushed me around till I cant even breathe...

(Amin)                  (Cmaj)            (Gmaj)                            (Fmaj)
 I dont know what you're doing to me...    You have turned me into something ugly and cheap....  x4


               -----------------------------------------------------------


(Outro)   -     Similar to bridge


  Amin(x6)      Cmaj(x2)      Gmaj(x3)    Cmaj(x6)    Fmaj(x4)    Cmaj(x2)
e|---0----------0-------------0-----------0-----------0-----------0-------------------|
B|---1----------1-------------1-----------1-----------1-----------1-------------------|
G|---2----------0-------------0-----------0-----------2-----------0-(Ring)------------|  (x1)
D|---2----------2-------------0-----------2-----------3-----------2-------------------|
A|---0----------3-------------2-----------3-----------------------3-------------------|
E|----------------------------3-------------------------------------------------------|



  Amin(x4)     Cmaj(x2)-PM    Gmaj(x3)    Cmaj(x6) - Down tempo     FMAJ(Slow)   CMAJ ---(END)
e|---0----------0-------------0-----------0-------------------------0-0-0-------0-------|
B|---1----------1-------------1-----------1-------------------------1-1-1-------1-------|
G|---2----------0-------------0-----------0-------------------------2-2-0-------0-(Ring)|   (x1)
D|---2----------2-------------0-----------2-------------------------3-0-0-------2-------|
A|---0----------3-------------2-----------3-------------------------------------3-------|
E|----------------------------3---------------------------------------------------------|


                  ----------     FIN, End, Done, Over, Going to take a shit     -------


-- This is my first submitted tab. She rings true. Too good of a song to not have a correct tab for --

                                      A chord diagramBB . P.

************************************

| h   Hammer-on
| p   Pull-off
| /   Slide up
| PM  Palm mute

↓ Add and view comments below ↓

What do you think about this song and these tabs?

Add your comments, questions, rant or a thumbs up below.

Almost there ...

Sign in to get your own page with links to favourite songs and more. You are just one click away...

Login with Facebook Login with Google