Log in

One click and you are in

Login with Facebook Login with Google

Why sign up and log in

Guitar Tabs Explorer
No Fun At All guitar tabs for Master celebrator

Guitar tabs

Key:                     FIntro

e|----------------------------------------------------|
B|----------------------------------------------------|
G|-10-5-7-5-10-5-7-5----------------------------------|
D|-10-5-7-5-10-5-7-5---2x-----------------------------|
A|--8-3-5-3--8-3-5-3----------------------------------|
E|----------------------------------------------------|

Verse
Guitar1
"Raise your voice start to speak..."

e|-----(Abafado)--------------------------------------|
B|----------------------------------------------------|
G|-10-5-7-5-10-5-7-5----5-7-3-----5-7-3---------------|
D|-10-5-7-5-10-5-7-5--3-5-7-3-3-3-5-7-3-3-------------|
A|--8-3-5-3--8-3-5-3--3-3-5-1-3-3-3-5-1-3-------------|
E|--------------------1-------1-1-------1-------------|


Guitar2

e|-----(Abafado)--------------------------------------|
B|----------------------------------------------------|
G|--5-------5-----------5-7-3-----5-7-3---------------|
D|----5-7-5---5-7-5---3-5-7-3-3-3-5-7-3-3-------------|
A|--------------------3-3-5-1-3-3-3-5-1-3-------------|
E|--------------------1-------1-1-------1-------------|


Chorus
"But I don't know, I don't know who knows"

e|---------------------------------(Abafado)----------|
B|----------------------------------------------------|
G|-7-3----------7-3---5-7-3---5--------3------5-------|
D|-7-3-3---1x---7-3-3-5-7-3-3-5---2x---3------5-------|
A|-5-1-3--------5-1-3-3-5-1-3-3--------1------3-------|
E|-----1------------1--------1------------------------|


Bridge

e|----------------------------------------------------|
B|----------------------------------------------------|
G|-10-5-7-5-10-5-7-5----------------------------------|
D|-10-5-7-5-10-5-7-5---2x-----------------------------|
A|--8-3-5-3--8-3-5-3----------------------------------|
E|----------------------------------------------------|


Guitar1
"Raise your head to save the world..."

e|-----(Abafado)--------------------------------------|
B|----------------------------------------------------|
G|-10-5-7-5-10-5-7-5----5-7-3-----5-7-3---------------|
D|-10-5-7-5-10-5-7-5--3-5-7-3-3-3-5-7-3-3-------------|
A|--8-3-5-3--8-3-5-3--3-3-5-1-3-3-3-5-1-3-------------|
E|--------------------1-------1-1-------1-------------|


Guitar2

e|-----(Abafado)--------------------------------------|
B|----------------------------------------------------|
G|--5-------5-----------5-7-3-----5-7-3---------------|
D|----5-7-5---5-7-5---3-5-7-3-3-3-5-7-3-3-------------|
A|--------------------3-3-5-1-3-3-3-5-1-3-------------|
E|--------------------1-------1-1-------1-------------|


Chorus
"But I don't know, I don't know who knows"

e|---------------------------------(Abafado)----------|
B|----------------------------------------------------|
G|-7-3----------7-3---5-7-3---5--------3------5-------|
D|-7-3-3---1x---7-3-3-5-7-3-3-5---2x---3------5-------|
A|-5-1-3--------5-1-3-3-5-1-3-3--------1------3-------|
E|-----1------------1--------1------------------------|


Base do Solo

e|----------------------------------------------------|
B|----------------------------------------------------|
G|---5-3-10-------------------------------------------|
D|-3-5-3-10-------------------------------------------|
A|-3-3-1--8-------------------------------------------|
E|-1--------------------------------------------------|


Solo

e|----------------------------------------------------|
B|----------------------------------------------------|
G|----------------------------------------------------|
D|-7-7-7-7-5-3-5-3-7-5-3-0---7-7-7-7-5-3-5-3-7-5-3----|
A|----------------------------------------------------|
E|----------------------------------------------------|


Paradinha com Bass

Ai come├ža

e|----------------------------------------------------|
B|----------------------------------------------------|
G|---5-3-10---5-3-10----------------------------------|
D|-3-5-3-10-3-5-3-10----------------------------------|
A|-3-3-1--8-3-3-1--8----------------------------------|
E|-1--------1-----------------------------------------|


Chorus
"But I don't know, I don't know who knows"

e|---------------------------------(Abafado)----------|
B|----------------------------------------------------|
G|-7-3----------7-3---5-7-3---5--------3------5-------|
D|-7-3-3---1x---7-3-3-5-7-3-3-5---2x---3------5-------|
A|-5-1-3--------5-1-3-3-5-1-3-3--------1------3-------|
E|-----1------------1--------1------------------------|


Final
Guitar1

e|----------------(Abafado)---------------------------|
B|----------------------------------------------------|
G|-10-5-7-5-------10-5-7-5----------------------------|
D|-10-5-7-5--2x---10-5-7-5--2x------------------------|
A|--8-3-5-3--------8-3-5-3----------------------------|
E|----------------------------------------------------|


Final
Guitar2

e|----------------------------------------------------|
B|----------------------------------------------------|
G|-10-5-7-5-------5-------5---------------------------|
D|-10-5-7-5--2x-----5-7-5---5-7-5---------------------|
A|--8-3-5-3-------------------------------------------|
E|----------------------------------------------------|

↓ Add and view comments below ↓

What do you think about this song and these tabs?

Add your comments, questions, rant or a thumbs up below.

Almost there ...

Sign in to get your own page with links to favourite songs and more. You are just one click away...

Login with Facebook Login with Google