Log in

One click and you are in

Login with Facebook Login with Google

Why sign up and log in

Guitar Tabs Explorer
No Fun At All bass tabs for Beat em down

Bass tabs

A great song !!
No Fun At All - Beat Em Down
Out of Bounds


00:06
G----------------------------------------------------------------|
D----------------------------------------------------------------|
A-3-3-3-3-3-3-3-3-3-3-3-3-----8-8-6-6-3-3--66----8-8-6-6-3-3--66-|
E-------------------------3-3-----------------3-3----------------|

G------------------------------------------------------------------|
D------------------------------------------------------------------|
A-------8-8-6-6-3-3--66-------8-8-6-6-3-3--66------8-8-6.--68---68-|
E--3-3------------------3-3-------------------3.3.------------8----|

G-----------------------------|
D-----------------------------|
A-3333333-3--6-888888-4-8-6-8-|
E--------4--------------------|

G----------------------------------------|
D----------------------------------------|
A-3-333333--6-6666666------------8-8-6-6-|  (4X)
E---------------------3-33333333---------|

G---------|
D---------|
A-333333-3|
E-------4-|

G---------------------------------------------------------|
D---------------------------------------------------------|
A-333333-666666--------66----333333-666666----------------| (2X)
E---------------444444----66---------------444444-6666666-|

G------------------------------------------|
D------------------------------------------|
A-333333--------66666--6--333333--------6--|
E--------444444-------6-6--------444444----|
G-----------------------------|
D-----------------------------|
A-3333333-3--6-888888-4-8-6-8-| (2X)
E--------4--------------------|

G----------------------------------------|
D----------------------------------------|
A-3-333333--6-6666666------------8-8-6-6-|  (4X)
E---------------------3-33333333---------|

G---------|
D---------|
A-333333-3|
E-------4-|

G---------------------------------------------------------|
D---------------------------------------------------------|
A-333333-666666--------66----333333-666666----------------| (2X)
E---------------444444----66---------------444444-6666666-|

G------------------------------------------|
D------------------------------------------|
A-333333--------66666--6--333333--------6--|
E--------444444-------6-6--------444444----|

G------------------------------------------|
D------------------------------------------|
A-33333-6-3.-6-6655555---------------8-5-8-|    (4X) Stop at A
E---------------------6666-55555555--------|

G---------------------------------------------------------|
D---------------------------------------------------------|
A-333333-666666--------66----333333-666666----------------| (2X)
E---------------444444----66---------------444444-6666666-|

G-------------------------|
D-------------------------|
A-333333--------66666--6--| (3X)
E--------444444-------6-6-|

G--------------------------|
D--------------------------|
A-333333--------6--------3-|
E--------444444------------|


Rate!
tnx


I'm from Brazil
Check out my band: www.myspace.com/hungerunited
on Facebook: Hunger United

↓ Add and view comments below ↓

What do you think about this song and these tabs?

Add your comments, questions, rant or a thumbs up below.

Almost there ...

Sign in to get your own page with links to favourite songs and more. You are just one click away...

Login with Facebook Login with Google