Log in

One click and you are in

Login with Facebook Login with Google

Why sign up and log in

Guitar Tabs Explorer
Niskalaukaus bass tabs for Lumessa kahlaajat

Bass tabs

Basstab by Jan Bjorklund, Finland;
jani_bjorklund@yahoo.se
You are welcome to request for basstabs!
Bienvenidos a pedirme transcripciones para el bajo!
Be sure to use a monospaced font!

TablEdited by Jan Bjorklund

Tuning : E A D G 	Time Signature: 4/4

 |       |       |       |        tempo 96|       ( octaver )
|--------------------------------|------------------------2-------|
|-- 15 bars of intro without ----|----------------3---5-------3---|
|----------- bass ---------------|--------------------------------|
|--------------------------------|--------------------------------|

 |       |       |       |        |       |       |       |
|----------------2---------------|--------------------0---2-------|
|0-------3---0-------0---3---0---|--------2-------3-----------3---|
|--------------------------------|3-----------3-------------------|
|--------------------------------|--------------------------------|

 |       |       |       |        |       |       |       |
|----------------2---------------|--------------------0---2-------|
|0-------3---0-------0---3---0---|--------2-------3-----------3---|
|--------------------------------|3-----------3-------------------|
|--------------------------------|--------------------------------|

 |       |       |       |        |       |       |       |
|----------------2---------------|--------------------0---2-------|
|0-------3---0-------0---3---0---|--------2-------3-----------3---|
|--------------------------------|3-----------3-------------------|
|--------------------------------|--------------------------------|

 |       |       |       |        |       |       |       |
|----------------2---------------|--------------------0---2-------|
|0-------3---0-------0---3---0---|--------0-------3-----------3---|
|--------------------------------|3-----------3-------------------|
|--------------------------------|--------------------------------|

 Se pommikoneiden|aalto...        |       |       |       |
|--------------------------------|--------------------0---2-------|
|0---0---0---0---0---0---0---0---|----------------3-----------3---|
|--------------------------------|3---3---3---3-------------------|
|--------------------------------|--------------------------------|

 yllä tuon uinuvan maan...        |       |       |       |
|--------------------------------|--------------------------------|
|0---0---0---0---0---0---0---0---|--------------------------------|
|--------------------------------|3---3---3---3---0---0---0---0---|
|--------------------------------|--------------------------------|

 |       |       |       |        |       |       |       |
|--------------------------------|--------------------------------|
|0---0---0---0-------------------|--------------------------------|
|----------------3---3---3---3---|1---1---1---1---0---0---0---0---|
|--------------------------------|--------------------------------|

 |       |       |       |        |       |       |       |
|--------------------------------|--------------------------------|
|--------------------------------|--------------------------------|
|--------------------------------|0---0---0---0---0---0---0---0---|
|3---3---3---3---3---3---3---3---|--------------------------------|

 ensin sai jokainen nähdä...      |       |       |       |
|--------------------------------|--------------------0---2-------|
|0---0---0---0---0---0---0---0---|----------------3-----------3---|
|--------------------------------|3---3---3---3-------------------|
|--------------------------------|--------------------------------|

 sen maailmanpalonsa..   |        |       |       |       oli
|--------------------------------|--------------------------------|
|0---0---0---0---0---0---0---0---|--------------------------------|
|--------------------------------|3---3---3---3---3---3---3---3---|
|--------------------------------|--------------------------------|

 miehen jokaisen...      |        poltettava      |       |
|--------------------------------|--------------------------------|
|--------------------------------|--------------------------------|
|1---1---1---1---3---3---3---3---|1---1---1---1---0---0---0---0---|
|--------------------------------|--------------------------------|

 oma     |       |   talonsa      |       |       |       |
|--------------------------------|--------------------0---2-------|
|--------------------------------|----------------3-----------3---|
|--------------------------------|0---0---0---0-------------------|
|3---3---3---3---3---3---3---3---|--------------------------------|

|       |       |       |        |       |       |       |
|----------------2---------------|--------------------0---2-------|
|0-------3---0-------0---3---0---|--------0-------3-----------3---|
|--------------------------------|3-----------3-------------------|
|--------------------------------|--------------------------------|

 |       |       |       |        |       |       |       |
|--------------------------------|--------------------------------|
|-------------------       and so on....      --------------------|
|--------------------------------|--------------------------------|
|--------------------------------|--------------------------------|

↓ Add and view comments below ↓

What do you think about this song and these tabs?

Add your comments, questions, rant or a thumbs up below.

Almost there ...

Sign in to get your own page with links to favourite songs and more. You are just one click away...

Login with Facebook Login with Google