Log in

One click and you are in

Login with Facebook Login with Google

Why sign up and log in

Guitar Tabs Explorer
Nirvana bass tabs for Token eastern song

Bass tabs

Tuning:Standard E,A,D,G
The Drums Come In First then the Bass comes in and goes:
G|---------------------------------------------------------------------------|
D|---------------------------------------------------------------------------|
A|---------------------------------------------------------------------------|
E|3-6-0-0----3-6-0-0--3-6-0-0---3-6-0-0-0------------------------------------|
you do this a few times then it goes to this

G|---------------------------------------------------------------------------|
D|------6-4------------------------------------------------------------------|
A|------------6-4------------------------------------------------------------|
E|0-0-------------0-0--------------------------------------------------------|
you can figure out your self exactly how many times you do that then the part where it
sounds like he is saying ¨only in you god¨ it goes like this
G|---------------------------------------------------------------------------|
D|---------------------------------------------------------------------------|
A|---------------------------------------------------------------------------|
E|-------3-3-3-3--0-0-0-3-3-3-3----------------------------------------------|
you do this during the solo also

G|---------------------------------------------------------------------------|
D|------6-4------------------------------------------------------------------|
A|------------6-4------------------------------------------------------------|
E|0-0-------------0-0--------------------------------------------------------|

Almost there ...

Sign in to get your own page with links to favourite songs and more. You are just one click away...

Login with Facebook Login with Google