Log in

One click and you are in

Login with Facebook Login with Google

Why sign up and log in

Guitar Tabs Explorer
Nirvana guitar tabs for Lounge act (Ver. 3)

Guitar tabs

Tuning: Standard (E A D G B E)


Intro:

e|---------------------------------------------------------------------------|
B|---------------------------------------------------------------------------|
G|-2-4-x-4-x-4-4-----5-x-5-5-------------------------------------------------|
D|-2/4-x-4-x-4-4-5-x-5-x-5-5-------------------------------------------------|
A|-0/2-x-2-x-2-2-5-x-3-x-3-3-------------------------------------------------|
E|-0/------------3-x---------------------------------------------------------|

e|---------------------------------------------------------------------------|
B|---------------------------------------------------------------------------|
G|-2-4-x-4-x-4-4-----5-x-5-5-------------------------------------------------|
D|-2/4-x-4-x-4-4-5-x-5-x-5-5-------------------------------------------------|
A|-0/2-x-2-x-2-2-5-x-3-x-3-3-------------------------------------------------|
E|-0/------------3-x---------------------------------------------------------|


Verse 1:

e|---------------------------------------------------------------------------|
B|---------------------------------------------------------------------------|
G|-2-4-x-4-x-4-4-----5-x-5-5-2/-4-x-4-x-4-4-----5-x-5-5----------------------|
D|-2/4-x-4-x-4-4-5-x-5-x-5-5-2/-4-x-4-x-4-4-5-x-5-x-5-5----------------------|
A|-0/2-x-2-x-2-2-5-x-3-x-3-3-0/-2-x-2-x-2-2-5-x-3-x-3-3----------------------|
E|-0/------------3-x---------0/-------------3-x------------------------------|

e|---------------------------------------------------------------------------|
B|---------------------------------------------------------------------------|
G|-2-4-x-4-x-4-4-----5-x-5-5-2/-4-x-4-x-4-4-----5-x-5-5----------------------|
D|-2/4-x-4-x-4-4-5-x-5-x-5-5-2/-4-x-4-x-4-4-5-x-5-x-5-5----------------------|
A|-0/2-x-2-x-2-2-5-x-3-x-3-3-0/-2-x-2-x-2-2-5-x-3-x-3-3----------------------|
E|-0/------------3-x---------0/-------------3-x------------------------------|

e|---------------------------------------------------------------------------|
B|---------------------------------------------------------------------------|
G|-2-4-x-4-x-4-4-----5-x-5-5-------------------------------------------------|
D|-2/4-x-4-x-4-4-5-x-5-x-5-5-------------------------------------------------|
A|-0/2-x-2-x-2-2-5-x-3-x-3-3-------------------------------------------------|
E|-0/------------3-x---------------------------------------------------------|


Chorus:

e|---------------------------------------------------------------------------|
B|---------------------------------------------------------------------------|
G|-----2-2-7-7---------2-2-7-7-----------------------------------------------|
D|-2-2-2-2-7-7-5-5-2-2-2-2-7-7-5-5-------------------------------------------|
A|-2-2-0-0-5-5-5-5-2-2-0-0-5-5-5-5-------------------------------------------|
E|-0-0---------3-3-0-0---------3-3-------------------------------------------|

e|---------------------------------------------------------------------------|
B|---------------------------------------------------------------------------|
G|-----2-2-7-7---------2-2-7-7-----------------------------------------------|
D|-2-2-2-2-7-7-5-5-2-2-2-2-7-7-5-5-2-2-2-2-2/-5-2-2-2-2-2/-5-----------------|
A|-2-2-0-0-5-5-5-5-2-2-0-0-5-5-5-5-2-2-2-2-2/-5-2-2-2-2-2/-5-----------------|
E|-0-0---------3-3-0-0---------3-3-0-0-0-0-0/-3-0-0-0-0-0/-3-----------------|



Verse 2:

e|---------------------------------------------------------------------------|
B|---------------------------------------------------------------------------|
G|-2-4-x-4-x-4-4-----5-x-5-5-2/-4-x-4-x-4-4-----5-x-5-5----------------------|
D|-2/4-x-4-x-4-4-5-x-5-x-5-5-2/-4-x-4-x-4-4-5-x-5-x-5-5----------------------|
A|-0/2-x-2-x-2-2-5-x-3-x-3-3-0/-2-x-2-x-2-2-5-x-3-x-3-3----------------------|
E|-0/------------3-x---------0/-------------3-x------------------------------|

e|---------------------------------------------------------------------------|
B|---------------------------------------------------------------------------|
G|-2-4-x-4-x-4-4-----5-x-5-5-2/-4-x-4-x-4-4-----5-x-5-5----------------------|
D|-2/4-x-4-x-4-4-5-x-5-x-5-5-2/-4-x-4-x-4-4-5-x-5-x-5-5----------------------|
A|-0/2-x-2-x-2-2-5-x-3-x-3-3-0/-2-x-2-x-2-2-5-x-3-x-3-3----------------------|
E|-0/------------3-x---------0/-------------3-x------------------------------|

e|---------------------------------------------------------------------------|
B|---------------------------------------------------------------------------|
G|-2-4-x-4-x-4-4-----5-x-5-5-------------------------------------------------|
D|-2/4-x-4-x-4-4-5-x-5-x-5-5-------------------------------------------------|
A|-0/2-x-2-x-2-2-5-x-3-x-3-3-------------------------------------------------|
E|-0/------------3-x---------------------------------------------------------|



Chorus:

e|---------------------------------------------------------------------------|
B|---------------------------------------------------------------------------|
G|-----2-2-7-7---------2-2-7-7-----------------------------------------------|
D|-2-2-2-2-7-7-5-5-2-2-2-2-7-7-5-5-------------------------------------------|
A|-2-2-0-0-5-5-5-5-2-2-0-0-5-5-5-5-------------------------------------------|
E|-0-0---------3-3-0-0---------3-3-------------------------------------------|

e|---------------------------------------------------------------------------|
B|---------------------------------------------------------------------------|
G|-----2-2-7-7---------2-2-7-7-----------------------------------------------|
D|-2-2-2-2-7-7-5-5-2-2-2-2-7-7-5-5-2-2-2-2-2/-5-2-2-2-2-2/-5-----------------|
A|-2-2-0-0-5-5-5-5-2-2-0-0-5-5-5-5-2-2-2-2-2/-5-2-2-2-2-2/-5-----------------|
E|-0-0---------3-3-0-0---------3-3-0-0-0-0-0/-3-0-0-0-0-0/-3-----------------|


Verse 3:

e|---------------------------------------------------------------------------|
B|---------------------------------------------------------------------------|
G|-2-4-x-4-x-4-4-----5-x-5-5-2/-4-x-4-x-4-4-----5-x-5-5----------------------|
D|-2/4-x-4-x-4-4-5-x-5-x-5-5-2/-4-x-4-x-4-4-5-x-5-x-5-5----------------------|
A|-0/2-x-2-x-2-2-5-x-3-x-3-3-0/-2-x-2-x-2-2-5-x-3-x-3-3----------------------|
E|-0/------------3-x---------0/-------------3-x------------------------------|

e|---------------------------------------------------------------------------|
B|---------------------------------------------------------------------------|
G|-2-4-x-4-x-4-4-----5-x-5-5-2/-4-x-4-x-4-4-----5-x-5-5----------------------|
D|-2/4-x-4-x-4-4-5-x-5-x-5-5-2/-4-x-4-x-4-4-5-x-5-x-5-5----------------------|
A|-0/2-x-2-x-2-2-5-x-3-x-3-3-0/-2-x-2-x-2-2-5-x-3-x-3-3----------------------|
E|-0/------------3-x---------0/-------------3-x------------------------------|

e|---------------------------------------------------------------------------|
B|---------------------------------------------------------------------------|
G|-2-4-x-4-x-4-4-----5-x-5-5-------------------------------------------------|
D|-2/4-x-4-x-4-4-5-x-5-x-5-5-------------------------------------------------|
A|-0/2-x-2-x-2-2-5-x-3-x-3-3-------------------------------------------------|
E|-0/------------3-x---------------------------------------------------------|


Chorus:

e|---------------------------------------------------------------------------|
B|---------------------------------------------------------------------------|
G|-----2-2-7-7---------2-2-7-7-----------------------------------------------|
D|-2-2-2-2-7-7-5-5-2-2-2-2-7-7-5-5-------------------------------------------|
A|-2-2-0-0-5-5-5-5-2-2-0-0-5-5-5-5-------------------------------------------|
E|-0-0---------3-3-0-0---------3-3-------------------------------------------|

e|---------------------------------------------------------------------------|
B|---------------------------------------------------------------------------|
G|-----2-2-7-7---------2-2-7-7-----------------------------------------------|
D|-2-2-2-2-7-7-5-5-2-2-2-2-7-7-5-5-------------------------------------------|
A|-2-2-0-0-5-5-5-5-2-2-0-0-5-5-5-5-------------------------------------------|
E|-0-0---------3-3-0-0---------3-3-------------------------------------------|

e|---------------------------------------------------------------------------|
B|---------------------------------------------------------------------------|
G|-----2-2-7-7---------2-2-7-7-----------------------------------------------|
D|-2-2-2-2-7-7-5-5-2-2-2-2-7-7-5-5-2-2-2-2-2/-5-2-2-2-2-2/-5-----------------|
A|-2-2-0-0-5-5-5-5-2-2-0-0-5-5-5-5-2-2-2-2-2/-5-2-2-2-2-2/-5-----------------|
E|-0-0---------3-3-0-0---------3-3-0-0-0-0-0/-3-0-0-0-0-0/-3-----------------|


************************************

| x  Dead note
| /  Slide up

************************************

Other versions of Lounge Act

Lounge actChords
Lounge act (Ver. 2)Chords
Lounge actTabs
Lounge act (Ver. 2)Tabs

Almost there ...

Sign in to get your own page with links to favourite songs and more. You are just one click away...

Login with Facebook Login with Google