Log in

One click and you are in

Login with Facebook Login with Google

Why sign up and log in

Guitar Tabs Explorer
Nirvana tabs for Laminated effect

Guitar tabs with lyrics

Ok this song is on Fecal Matter's Illetirecy Will Prevail. It is the second song on the
i personal have seen the tape and have a few songs off it... so here is LAMINATED EFFECT!

Intro:

|-----------------------------------------------------------------|
|-----------------------------------------------------------------|
|-----------------------------------------------------------------|
|-----------------------------------------------------------------|
|----7------------------------------------------------------------|
|--0--------------------------------------------------------------|
     ^ let ring


Main Riff/Intro:

|-----------------------------------------------------------------|
|-----------------------------------------------------------------|
|-----------------------------------------------------------------| X12
|-----8-8---------------------------------------------------------|
|--2XX6-6-656565--------------------------------------------------|
|--0XX----434343--------------------------------------------------|
          \ pm /


Chorus:

|-----------------------------------------------------------------|
|-----------------------------------------------------------------|
|-----------------------------------------------------------------|
|----------6-6-5---5----------------------------------------------| X3
|--5-5-5-8-4-4-3-8-3-5--------------------------------------------|
|--3-3-3-6-------6---3--------------------------------------------|

|-----------------------------------------------------------------|
|-----------------------------------------------------------------|
|-----------------------------------------------------------------|
|-----------------------------------------------------------------|
|--8--2-----------------------------------------------------------|
|--6--0-----------------------------------------------------------|


Outro:

Just jam!

Lyrics:

Johnny was a homo
Kept his body clean
Moved to San Francisco
Caught a big disease
Raped by his daddy
Johnny was at war
Living life unhappy
Covered up with salt

We're living in a time of change
Too many things you feel afraid
Do things against the will of God
Maybe someday soon they'll realize they're wrong

Lucy was a lesbian
Didn't make no sense
Moved to Acapulco
Nothing goes in her hole
Then she met Johnny
The dancing was informal
He and she got naughty
Found out that it's normal

We are living in a time of change
Too many things you feel afraid
Do things against the will of God
Maybe someday soon they'll realize they're wrong

Made not born
Made not born
Made not born
Made not born
Made not born

Almost there ...

Sign in to get your own page with links to favourite songs and more. You are just one click away...

Login with Facebook Login with Google