Log in

One click and you are in

Login with Facebook Login with Google

Why sign up and log in

Guitar Tabs Explorer
Nirvana bass tabs for Dumb acoustic

Bass tabs with lyrics

Nirvana
Dumb (unplugged In NY)
 ____________________
|🏷Legend:       |
|____________________|
|x = Mute      |
|          |
|\ = Slide Up to   |
|          |
|/ = Slide Down to  |
|____________________|
|Strings:      |
|____________________|
|(1)=G string    |
|(2)=D string    |
|(3)=A string    |
|(4)=E string    |
|____________________|
 ______________________________
|D U M B   U N P L U G G E D |
|______________________________|
|Tuning:            |
|Down Half Step        |
|(1)=Gb (3)=Ab         |
|(2)=Db (4)=Eb         |
|______________________________|
|Tempo - Moderately = 110.   |
|______________________________|


VERSE [1]:
__________
 Esus4 A     Gsus4 C     Esus4 A     Gsus4 C
|----------------|----------------|----------------|---------------|
|----------------|----------------|----------------|---------------|
|----------------|-------3-3-3-5--|----------------|-------3-2-0---|
|-0-x-0-\5-8-5-3-|-3-3-0----------|-0-x-0-\5-8-5-3-|-3-3-0-------3-|

 Esus4 A     Gsus4 C     Esus4 A     Gsus4 C
|----------------|----------------|----------------|---------------|
|----------------|----------------|----------------|---------------|
|----------------|-------3-3-3-5--|----------------|-------3-3-3-3-|
|-0-x-0-\5-8-5-3-|-3-3-0----------|-0-x-0-\5-8-5-3-|-3-3-0---------|

CHORUS [1]:
___________
 E  Em    G       E  Em    G
|-------------|-------------|-------------|-------------|
|-------------|-------------|-------------|-------------|
|----\7-7-5-0-|-------------|----\7-7-5-0-|-------------|
|-0-0---------|-3--3-3--3-3-|-0-0---------|-3--3-3--3-3-|

Em11 E Em     G       E  Em    G      Em11
|---------------|-------------|-------------|--------\16-16/-|
|---------------|-------------|-------------|----------------|
|------\7-7-5-0-|-------------|----\7-7-5-0-|----------------|
|---0-0---------|-3--3-3--3-3-|-0-0---------|-3--3-3---------|


VERSE [2]:
__________
 Esus4 A     Gsus4 C     Esus4 A     Gsus4 C
|----------------|----------------|----------------|---------------|
|----------------|----------------|----------------|---------------|
|----------------|-------3-3-3-5--|----------------|-------3-2-0---|
|-0-x-0-\5-8-5-3-|-3-3-0----------|-0-x-0-\5-8-5-3-|-3-3-0-------3-|

 Esus4 A     Gsus4 C     Esus4 A     Gsus4 C
|----------------|----------------|----------------|---------------|
|----------------|----------------|----------------|---------------|
|----------------|-------3-3-3-5--|----------------|-------3-3-3-3-|
|-0-x-0-\5-8-5-3-|-3-3-0----------|-0-x-0-\5-8-5-3-|-3-3-0---------|


CHORUS [2]:
___________
 E  Em    G       E  Em    G
|-------------|-------------|-------------|-------------|
|-------------|-------------|-------------|-------------|
|----\7-7-5-0-|-------------|----\7-7-5-0-|-------------|
|-0-0---------|-3--3-3--3-3-|-0-0---------|-3--3-3--3-3-|

Em11 E Em     G       E  Em    G      Em11
|---------------|-------------|-------------|--------\16-16/-|
|---------------|-------------|-------------|----------------|
|------\7-7-5-0-|-------------|----\7-7-5-0-|----------------|
|---0-0---------|-3--3-3--3-3-|-0-0---------|-3--3-3---------|

BRIDGE:
_______
 B     G/A C     G/A B     G/A C     G/A
|---------------|--------------|---------------|--------------|
|---------------|--------------|---------------|--------------|
|-2--2-2--2-2-2-|-3--3-3---3-3-|-2--2-2--2-2-2-|-3--3-3---3-3-|
|---------------|--------0-----|---------------|--------0-----|

 B     G/A C     G/A B     G/A C
|---------------|--------------|---------------|--------------|
|---------------|--------------|---------------|--------------|
|-2--2-2--2-2-2-|-3--3-3---3-3-|-2--2-2--2-2-2-|-3------------|
|---------------|--------0-----|---------------|--------------|
                         ^let ring- -]

VERSE [3]:
__________
 Esus4 A     Gsus4 C     Esus4 A     Gsus4 C
|----------------|----------------|----------------|---------------|
|----------------|----------------|----------------|---------------|
|----------------|-------3-3-3-5--|----------------|-------3-2-0---|
|-0-x-0-\5-8-5-3-|-3-3-0----------|-0-x-0-\5-8-5-3-|-3-3-0-------3-|

 Esus4 A     Gsus4 C     Esus4 A     Gsus4 C
|----------------|----------------|----------------|---------------|
|----------------|----------------|----------------|---------------|
|----------------|-------3-3-3-5--|----------------|-------3-3-3-3-|
|-0-x-0-\5-8-5-3-|-3-3-0----------|-0-x-0-\5-8-5-3-|-3-3-0---------|


CHORUS [3]:
___________
 E  Em    G       E  Em    G
|-------------|-------------|-------------|-------------|
|-------------|-------------|-------------|-------------|
|----\7-7-5-0-|-------------|----\7-7-5-0-|-------------|
|-0-0---------|-3--3-3--3-3-|-0-0---------|-3--3-3--3-3-|

Em11 E Em     G       E  Em    G      Em11
|---------------|-------------|-------------|--------\16-16/-|
|---------------|-------------|-------------|----------------|
|------\7-7-5-0-|-------------|----\7-7-5-0-|----------------|
|---0-0---------|-3--3-3--3-3-|-0-0---------|-3--3-3---------|

OUTRO:
______
 Em   A  G/A G G/A C   G  Em   A  G/A G G/A C   G
|-------------------------------|-------------------------------|
|-------------------------------|-------------------------------|
|-----------------------3-3-3-3-|-----------------------3-3-3-3-|
|-0--0-0-5-5-5-5-3--3-3---------|-0--0-0-5-5-5-5-3--3-3---------|

 Em   A  G/A G G/A C   G  Em   A  G/A G G/A C   G
|-------------------------------|-------------------------------|
|-------------------------------|-------------------------------|
|-----------------------3-3-3-3-|-----------------------3-3-3-3-|
|-0--0-0-5-5-5-5-3--3-3---------|-0--0-0-5-5-5-5-3--3-3---------|

 Em   A  G/A G G/A C   G  Em   A  G/A G G/A C   G
|-------------------------------|-------------------------------|
|-------------------------------|-------------------------------|
|-----------------------3-3-3-3-|-----------------------3-3-3-3-|
|-0--0-0-5-5-5-5-3--3-3---------|-0--0-0-5-5-5-5-3--3-3---------|

 Em   A  G/A G G/A C   G  Em   A  G/A G G/A C   G  E5
|-------------------------------|-------------------------------|---------||
|-------------------------------|-------------------------------|---------||
|-----------------------3-3-3-3-|-----------------------3-3-3-3-|---------||
|-0--0-0-5-5-5-5-3--3-3---------|-0--0-0-5-5-5-5-3--3-3---------|-0-------||

Please rate this tab.

Other versions of Dumb Acoustic

DumbBass tabs

Almost there ...

Sign in to get your own page with links to favourite songs and more. You are just one click away...

Login with Facebook Login with Google