Log in

One click and you are in

Login with Facebook Login with Google

Why sign up and log in

Guitar Tabs Explorer
Nirvana guitar chords for Come as you are ukulele

Guitar chords with lyrics

Intro:

A|-------|---------------------------------|
E|-------|-----3---3---------5-------5-----|
C|-2-2-3-|-4-----4---4-4-3-2---2-2-----2-3-|
g|-------|---------------------------------|

A|---------------------------------|
E|-----3---3---------5-------5-----|
C|-4-----4---4-4-3-2---2-2-----2-3-|
g|---------------------------------|

Verse:

A|---------------------------------|
E|-----3---3---------5-------5-----|
C|-4-----4---4-4-3-2---2-2-----2-3-| Repeat 8 times
g|---------------------------------|


Chorus:

   E  G
Memori....a
   E  G
Memori....a
   E  G
Memori....a
   E  G
Memori....a

Verse:

A|---------------------------------|
E|-----3---3---------5-------5-----|
C|-4-----4---4-4-3-2---2-2-----2-3-| Repeat 8 times
g|---------------------------------|


Chorus:

   E  G
Memori....a
   E  G
Memori....a
   E  G
Memori....a
   E  G
Memori....a
A    C      A        C
 And I swear that I don't have a gun
   A        C
No, I don't have a gun
   A        C
No, I don't have a gun

A|---------------------------------|
E|-----3---3---------5-------5-----|
C|-4-----4---4-4-3-2---2-2-----2-3-| Repeat 2 times
g|---------------------------------|


Solo:

Play either fig.a or fig.b through the solo section,
If you can play a second ukulele ith your feet, then play both

fig.a:

A|---------------------------------|
E|-----3---3---------5-------5-----|
C|-4-----4---4-4-3-2---2-2-----2-3-| Repeat 8 times
g|---------------------------------|

A|---------5~--7~----------5~--7~----------5~--7^8~--------7~--5~--|
E|-7~--------------7~--------------7~------------------------------|
C|-----------------------------------------------------------------| Repeat 4 times
g|-----------------------------------------------------------------|


Chorus:

   E  G
Memori....a
   E  G
Memori....a
   E  G
Memori....a
   E  G
Memori....a
A    C      A        C
 And I swear that I don't have a gun
   A        C
No, I don't have a gun
   A        C
No, I don't have a gun
   A        C
No, I don't have a gun
   A        C
No, I don't have a gun


Outro:

A|---------------------------------|
E|-----3---3---------5-------5-----|
C|-4-----4---4-4-3-2---2-2-----2-3-| Repeat 3 times
g|---------------------------------|

A|-------------------------------------|
E|-----3---3---------5-------5---------|
C|-4-----4---4-4-3-2---2-2-----2-3-4---|
g|-------------------------------------|

Almost there ...

Sign in to get your own page with links to favourite songs and more. You are just one click away...

Login with Facebook Login with Google