Log in

One click and you are in

Login with Facebook Login with Google

Why sign up and log in

Guitar Tabs Explorer
Nine Inch Nails bass tabs for Play the goddamned part

Play The Goddamned Part bass tab by Nine Inch Nails

Nine Inch Nails bass tabs for Play the goddamned part

Bass tabs

Tuning: Standard (E A D G)

From Bad Witch.


Intro:

G|-------------------------|-------------------------|
D|-------------------------|-------------------------|
A|-8\----3--3--3--5--5--5--|-5--5--5--5--5--8--8--8--| x4
E|-------------------------|-------------------------|
0:12:

G|-------------------------|-------------------------|
D|-------------------------|-------------------------|
A|-8\----3--3--3--5--5--5--|-5--5--5--5--5--8--8--8--| x8
E|-------------------------|-------------------------|


0:38:

G|-------------------------|-------------------------|
D|-------------------------|-------------------------|
A|-8\----3--3--3--5--5--5--|-5--5--5--5--5--8--8--8--| x8
E|-------------------------|-------------------------|


1:03:

G|-------------------------|-------------------------|
D|-------------------------|-------------------------|
A|-8\----3--3--3--5--5--5--|-5--5--5--5--5--8--8--8--| x6
E|-------------------------|-------------------------|

1:22:

G|-------------------------|-------------------------|
D|-------------------------|-------------------------|
A|-8\----3--3--3--5--5--5--|-5--5--5--5--5--8--8--8--| x6
E|-------------------------|-------------------------|


1:41:

G|-------------------------|-------------------------|
D|-------------------------|-------------------------|
A|-8\----3--3--3--5--5--5--|-5--5--5--5--5--8--8--8--| x4
E|-------------------------|-------------------------|


1:53:

G|-------------------------|-------------------------|
D|-------------------------|-------------------------|
A|-8\----3--3--3--5--5--5--|-5--5--5--5--5--8--8--8--| x8
E|-------------------------|-------------------------|


Outro at 2:19:

No Bass.


************************************

| \  Slide down

************************************
ⓘ Bass guitar tab for 'Play The Goddamned Part' by Nine Inch Nails, an industrial metal band formed in 1988 from Cleveland, Ohio, USA. Nine Inch Nails is known for their confrontational metal music.

Almost there ...

Sign in to get your own page with links to favourite songs and more. You are just one click away...

Login with Facebook Login with Google