Log in

One click and you are in

Login with Facebook Login with Google

Why sign up and log in

Guitar Tabs Explorer
Nina tabs for Foolish heart

Guitar tabs

Hope you'll enjoy this one.my email is reginaldstalucia@yahoo.com..add me up also on facebook..and feel free to comment!


Intro:

|------2---T-----------2---T-----------2---T-----------------------|
|--4-----------2---------------0---------------2---------------2---|
|--4-------A---3-----------A---1-----------A---3-----------4-------|
|--------------2-------------------------------2-------------------|
|----------P---------------P---------------P-----------------------|
|--0---------------------------0-----------------------------------|
|------2---T-----------2---T-----------2---T-----------------------|
|--4-----------2---------------0---------------2-------------------|
|--4-------A---3-----------A---1-----------A---3-----------3h4p3---|
|--------------2---------------2---------------2-------------------|
|----------P---------------P---------------P-----------------------|
|--0---------------------------------------------------------------|


|------2---T-----------2---T-----------2---T-----------------------|
|--4-----------2---------------0---------------2---------------2---|
|--4-------A---3-----------A---1-----------A---3-----------4-------|
|--------------2---------------2---------------2-------------------|
|----------P---------------P---------------P-----------------------|
|--0---------------------------------------------------------------|


|------2---T-----------2---T---2---------------[2]---------T-------|
|--4-----------2---------------0-----------[0]---------------------|
|--4-------A---3-----------A---x-------[3]-----------------A-------|
|--------------2---------------2-----------------------------------|
|----------P---------------P---2---------------------------P-------|
|--0---------------------------0-----------------------------------|


Verse:

|------2---T-----------2---T-----------2---T-----------------------|
|--4-----------2---------------0---------------2---------------2---|
|--4-------A---3-----------A---1-----------A---3-----------4-------|
|--2-----------2---------------2---------------2-------------------|
|----------P---------------P---------------P-----------------------|
|------------------------------------------------------------------|


|------2---T-----------2---T-----------2---T-------------------2---|
|--4-----------2---------------0---------------2-----------4-------|
|--4-------A---3-----------A---1-----------A---3-------------------|
|--------------2---------------2---------------2-------------------|
|----------P---------------P---------------P-----------------------|
|--0---------------------------------------------------------------|



Refrain 1:

|--4-----------2---------------------------T-----------------------|
|--4-----------2-------[4]------2--------2-----4-------------------|
|----------------------------------3h4---3-A---4-------------------|
|--------------------------2-------4-----------4---------------4---|
|--2-----------2-------------------------------------------4h6-----|
|----------------------------------4-------P---4-----4-4-----------|


|------------------------------------------------------------------|
|----------0-------2-----2-T---2-----------------4h5---4-----------|
|------------------4-----4-A---4-----------1---------------6---4---|
|------4-----------------------3---2-----------4-4h6--p4-----------|
|------------------------------------------------------------------|
|--4-----------4---3-------P-3-----2-------------------------------|


Repeat the pattern from Verse 1 for Verse 2 (with slight variation on bass parts).


Refrain 2:

|--4-------T---2-------2-------------------------------------------|
|--4-----------2---------4\2-------4-----------4-----------4---T---|
|--2-------A---2---------4\2---4---4-----3--T--4-----------4-------|
|------------------------------4---------4--A--4-----------4---A---|
|--2-------P---2---------------------------------------------------|
|----------------------------------4--------P--4-------4-4-----P---|


|----------------------------------------------2-------------------|
|--4-------T---------4-----4---T---------------2-----------2-------|
|--4-----------------4-----4---A---4-------4---4---------------4---|
|--4-----4-A---------3-----3-------4---6-------4-------4-----------|
|--------------6\5-4-----4-----P---4-------------------------------|
|--4-------P-4-----------------------------------------------------|



Chorus:


|------------------2----------------------2-T---------------------|
|------0-----------0----------------2-----2-A---4-----------2-----|
|----------3-------------3----------------------4-----------4-----|
|--------------4--------------4-------------------------4-------4-|
|-------------------------------4p0-1-------P---2-----------------|
|--0--------------------------------------------------------------|


|------------------2----------------------2-T----------------------|
|------0-----------0----------------2-----2-A---4------------------|
|----------3-------------3----------------------4------------------|
|--------------4--------------4------------------------------------|
|-------------------------------4p0-1-------P-2-------------4p2----|
|--0------------------------------------------------------------4-2|


|------------------2----------------------2---------2---2-------2-|
|------0-----------0----------------2-----2---------2h4-2---2---2-|
|----------3-------------3------------------------4---------------|
|--------------4--------------4-----------------------------------|
|-------------------------------4p0-1---------2-------------1-----|
|--0--------------------------------------------------------------|


|----------------------------------------------2-------------------|
|--------------------------4-------------------2-------------------|
|--4-----4-T---------------4---------------4-----------------------|
|--4-----4-A-----------4-------4-------4---------------------------|
|--------------2-3-4-----------------------------------------------|
|--4-------P-4---------------------2-------------------------------|


h  =  hammer on
p  =  pull off
/  =  slide up
\  =  slide down
x  =  dead string
TAP=  tapping the string/strings
[] =  artificial harmonic

Other versions of Foolish Heart

Foolish heartChords

Almost there ...

Sign in to get your own page with links to favourite songs and more. You are just one click away...

Login with Facebook Login with Google