Log in

One click and you are in

Login with Facebook Login with Google

Why sign up and log in

Guitar Tabs Explorer
Stevie Nicks bass tabs for Rooms on fire

Bass tabs

Tuning: D Tuning (D G C F)


Intro:
G|-----------|---------|
D|-----------|---------|
A|-----------|---------|
D|-3--5--7/0-|-3--5--0-|
]Verse1]
G|----------------------------|-----------------------------------|
D|----------------------------|-----------------------------------|
A|-----------0-3--3h5---3h5---|---------------0h3-0h3--5-5--3h5-5-|
D|-3--3-3--5----------0-----0-|-0-2-3--3-3--5-----------0------0--|


Bridge:
G|----------------------------|-----------------------------|
D|----------------------------|-----------------------------|
A|-0--------------------------|-3--2-3--3--3----------------|
D|---------5\3-3--3-3--3--3-3-|--------------5--5-5--5--5-5-|


Chorus:
G|---------------------|-------------------------|
D|-----------------3-3-|--3----------------------|
A|-3-3-0-3--5-5--5-----|-5-5-3-------------------|
D|---------------------|------5--3-5--3h5-5--3-5-|

G|----------------------|----------------------|
D|----------------------|----------------------|
A|----------------------|----------------------|
D|-3-3-0-3-5--3-3-0-3-5-|-5h7--7-7--5h7-7--7-7-|

G|---------------------|-------------------------|
D|-----------------3-3-|--3----------------------|
A|-3-3-0-3--5-5--5-----|-5-5-3-------------------|
D|---------------------|------5--3-5--3h5-5--3-5-|

G|----------------------|----------------------|
D|----------------------|----------------------|
A|----------------------|----------------------|
D|-3-3-0-3-5--3-3-0-3-5-|-5h7--7-7--5h7-7--7-7-|

Outro: spanish guitar:
G|------------------------|
D|------------------------|
A|------------------------|
D|-7--------7-----------5-|


Verse2:
G|----------------------------|-----------------------------------|
D|----------------------------|-----------------------------------|
A|-----------0-3--3h5---3h5---|---------------0h3-0h3--5-5--3h5-5-| x2
D|-3--3-3--5----------0-----0-|-0-2-3--3-3--5-----------0------0--|


Bridge:
G|----------------------------|-----------------------------|
D|----------------------------|-----------------------------|
A|-0--------------------------|-3--2-3--3--3----------------|
D|---------5\3-3--3-3--3--3-3-|--------------5--5-5--5--5-5-|


Chorus:
G|---------------------|-------------------------|
D|-----------------3-3-|--3----------------------|
A|-3-3-0-3--5-5--5-----|-5-5-3-------------------|
D|---------------------|------5--3-5--3h5-5--3-5-|

G|----------------------|----------------------|
D|----------------------|----------------------|
A|----------------------|----------------------|
D|-3-3-0-3-5--3-3-0-3-5-|-5h7--7-7--5h7-7--7-7-|

G|---------------------|-------------------------|
D|-----------------3-3-|--3----------------------|
A|-3-3-0-3--5-5--5-----|-5-5-3-------------------|
D|---------------------|------5--3-5--3h5-5--3-5-|

G|----------------------|----------------------|
D|----------------------|----------------------|
A|----------------------|----------------------|
D|-3-3-0-3-5--3-3-0-3-5-|-5h7--7-7--5h7-7--7-7-|

Interlude:
G|----------------------------|--------------------------|
D|----------------------------|--------------------------|
A|----------------------------|--------------------------|
D|-5-3--3-5--3--3-5--5-7--5-7-|-3--3-5--3--3-5--5-7--5-7-|


Outro:      Spanish guitar2:
G|---------------|-------------------------|
D|---------------|-------------------------|
A|---------------|-------------------------|
D|-7--------3----|-----3--------3--------3-|


Chorus:
G|---------------------|-------------------------|
D|-----------------3-3-|--3----------------------|
A|-3-3-0-3--5-5--5-----|-5-5-3-------------------|
D|---------------------|------5--3-5--3h5-5--3-5-|

G|----------------------|----------------------|
D|----------------------|----------------------|
A|----------------------|----------------------|
D|-3-3-0-3-5--3-3-0-3-5-|-5h7--7-7--5h7-7--7-7-|

G|---------------------|-------------------------|
D|-----------------3-3-|--3----------------------|
A|-3-3-0-3--5-5--5-----|-5-5-3-------------------|
D|---------------------|------5--3-5--3h5-5--3-5-|

G|----------------------|----------------------|
D|----------------------|----------------------|
A|----------------------|----------------------|
D|-3-3-0-3-5--3-3-0-3-5-|-5h7--7-7--5h7-7--7-7-|


Chorus2:
G|---------------------|-------------------------|
D|-----------------3-3-|--3----------------------|
A|-3-3-0-3--5-5--5-----|-5-5-3-------------------|
D|---------------------|------5--3-5--3h5-5--3-5-|

G|----------------------|----------------------|
D|----------------------|----------------------|
A|----------------------|----------------------|
D|-3-3-0-3-5--3-3-0-3-5-|-5h7--7-7--5h7-7--7-7-|

G|---------------------|-------------------------|
D|-----------------3-3-|--3----------------------|
A|-3-3-0-3--5-5--5-----|-5-5-3-------------------|
D|---------------------|------5--3-5--3h5-5--3-5-|

G|----------------------|----------------------|
D|----------------------|----------------------|
A|----------------------|----------------------|
D|-3-3-0-3-5--3-3-0-3-5-|-5h7--7-7--5h7-7--7-7-|

**********************
| h hammer on
|/slide up
|\ slide down
*********************

Almost there ...

Sign in to get your own page with links to favourite songs and more. You are just one click away...

Login with Facebook Login with Google