Log in

One click and you are in

Login with Facebook Login with Google

Why sign up and log in

Guitar Tabs Explorer
Stevie Nicks tabs for Enchanted

Guitar tabs

This is the tab for stevie nicks' enchanted
it's from the 1983 album, "the wild heart"

X=left hand mute
/=slide up
\=slide down
h=hammer on
p=pull off
/\/\/=full step vibrato
/(#)=note rings out following slide

There are only 2 part's to this song, the riff and the solo, the riff goes
like this:

      (Amaj)
E-------5--5----X---5--5---5----X-----5-------X---5--5---5--5--X-------|
B-------5--5----X---5--5---5----X-----5-------X---5--5---5--5--X-------|
G-------6--6----X---6--6---6----X-----6-------X---6--6---6--6--X-------|
D-------7--7----X---7--7---7----X-----7-------X---7--7---7--7--X-------|
A-------7--7----X---7--7---7----X-----7-------X---7--7---7--7--X-------|
E-------5--5----X---5--5---5----X-----5-------X---5--5---5--5--X-------|

         (Emaj)
E-------7--7--7--7--7--7--7--7----X-----5---X---5--5--5--X----|
B-------9--9--9--9--9--9--9--9----X-----5---X---5--5--5--X----|
G-------9--9--9--9--9--9--9--9----X-----6---X---6--6--6--X----|
D-------9--9--9--9--9--9--9--9----X-----7---X---7--7--7--X----|
A-------7--7--7--7--7--7--7--7----X-----7---X---7--7--7--X----|
E-------7--7--7--7--7--7--7--7----X-----5---X---5--5--5--X----|

Then the solo goes like this:
E-----------------------------------------------------------------------------
-----|
B-----------------------------------------------------------------------------
-----|
G-----------------------------------------------------------------------------
-----|
D-----------------------------------------------------------------------------
-----|
A--------------------------5/(7)---7---7-7-7----------------------------------
-|
E---3/(5)--5---5-5-5--------------------------5p3-5p3-1------1/(5)------|

E-----------------------------------------------------------------------------
---------|
B-----------------------------------------------------------------------------
---------|
G-----------------------------------------------------------------------------
---------|
D-----------------------------------------------------------------------------
---------|
A--------------------------5/(7)---7---7-7-7----5/\/\/\-----------------------
----|
E---3/(5)--5---5-5-5--------------------------------------5--5-5--5-5---5-----
|

and that's it, really simple.


________________________________________________________
and that, in a bundle, is enchanted
If you have corrections, or can tab out 'The Highwayman', mail me at:
Crow69.msn.com

Other versions of Enchanted

EnchantedChords

Almost there ...

Sign in to get your own page with links to favourite songs and more. You are just one click away...

Login with Facebook Login with Google