Search tabs and chords

Browse bands and artists

A B C D E F G H I J K L M N O P Q R S T U V W X Y Z #

Log in

[ Register here | Forgot password ]

Guitar Tabs Explorer
Print

Rockstar bass tab by Nickelback

Bass tabs

G--------------
D-5-3----------
A-----5--0-3-5-
D-------------

G------------------------------------------------------------------
D---------------5---------10---------------------------3-----------
A----10-------5--------3/----3-3-3--3-0-------8------3----------10-
D-5/------5-5-----5------------------------3/----3-3----3----5/----

Pre-chorus
G-----------
D-----------
A-1~----3~--
D-----------

Chorus
G----------------------3--------5-7----5------------------------2--
D----5-------5----------------3-----------------------1-------/3---
A-------------------1-1--11-1-------3-3--3--33-3-3-----------------
D-5-5--55-555--5-5/--------------------------------1-1--1-3-3------

G----------------------3--------5-7----5------------------------2--
D----5-------5----------------3-----------------------1-------/3---
A-------------------1-1--11-1-------3-3--3--33-3-3-----------------
D-5-5--55-555--5-5/--------------------------------1-1--1-3-3------

G-----------------
D-----------------
A-1-1-1-1-3-3-3-3-
D-----------------

G--------------------------
D--------/5--5-5-5-5-5-5-5-
A--------------------------
D-5--5-5-------------------

G--------------
D--------------
A-1~----3~-----
D-----------5~-

Verse X2
Chorus X2
Bridge
G-------------------------------------------------------
D-------------------------------------------------------
A-----------------1-1-1-1-1-1-1-1-----------------3~----
D-1-1-1-1-1-1-1-1-----------------1-1-1-1-1-1-1-1----3~-

Final Chorus/Ending  x2
G----------------------3--------5-7----5-------------------------2-
D----5-------5----------------3------------------------1-------/3--
A-------------------1-1--11-1-------3-3--3--33-3-3-----------------
D-5-5--55-555--5-5/--------------------------------1-1---1-3-3-----

G-----------------
D-----------------    x1
A-1-1-1-1-3-3-3-3-
D-----------------

G-------------------------
D-------/5--5-5-5-5-5-5-5-
A-------------------------    x1

Comments