Guitar Tabs Explorer
Nickelback bass tabs for Never gonna be alone

Never Gonna Be Alone bass tab


Be the first to rate


CaughtinthestormAuthor: Caughtinthestorm

Never Gonna Be Alone bass tab by Nickelback

Bass tabs

Print
  • Tuning: Standard tuning
  • Difficulty: Novice

Track 7 from Dark Horse - Never Gonna Be Alone

Tuning - Standard

                          Verse
G |----------------|----------------|-------------------|----------------|
D |----------------|----------------|-------------------|----------------|
A |----------------|--2--2----2--2--|--4--4----4--4--4--|--0--0----0--0--|
E |--0--0----0--0--|----------------|-------------------|----------------|

          Pre Chorus
G |----------------------------|
D |----------------------------|
A |----------9----9--7--9--12--|
E |--2--2----------------------|

                         Chorus
G |-------------|-------------|-------------|----------------|
D |-------------|-------------|-------------|----------------|
A |-------------|--2----2--2--|--0----0--0--|--0----0--0--0--|
E |--0----0--0--|-------------|-------------|----------------|

G |-------------|-------------|-------------|--------------------4--|
D |-------------|-------------|-------------|--------------2--4-----|
A |-------------|--2----2--2--|--0----0--0--|--0--2--4--0-----------|
E |--0----0--0--|-------------|-------------|-----------------------|

G |-------------|-------------|----------|
D |-------------|-------------|----------|
A |-------------|--2----2--2--|--0----0--|
E |--4----4--4--|-------------|----------|

                              Verse II
G |----------------|----------------|-------------------|----------------|
D |----------------|----------------|-------------------|----------------|
A |----------------|--2--2----2--2--|--4--4----4--4--4--|--0--0----0--0--|
E |--0--0----0--0--|----------------|-------------------|----------------|

          Pre Chorus
G |----------------------------|
D |----------------------------|
A |----------9----9--7--9--12--|
E |--2--2----------------------|

                        Chorus II
G |-------------|-------------|-------------|----------------|
D |-------------|-------------|-------------|----------------|
A |-------------|--2----2--2--|--0----0--0--|--0----0--0--0--|
E |--0----0--0--|-------------|-------------|----------------|

G |-------------|-------------|-------------|--------------------4--|
D |-------------|-------------|-------------|--------------2--4-----| X2
A |-------------|--2----2--2--|--0----0--0--|--0--2--4--0-----------|
E |--0----0--0--|-------------|-------------|-----------------------|

G |-------------|-------------|----------|
D |-------------|-------------|----------|
A |-------------|--2----2--2--|--0----0--|
E |--4----4--4--|-------------|----------|

                               Bridge
G |--------------------------|--------------------------|--------------------------|
D |--------------------------|--------------------------|--------------------------|
A |--------------------4--4--|--4--4--4--4--4--4--4--4--|--------------------2--2--|
E |--2--2--2--2--2--2--------|--------------------------|--0--0--0--0--0--0--------|

G |--------------------------|--------------------------|--------------------------|--------------------------|
D |--------------------------|--------------------------|--------------------------|--------------------------| X3
A |--2--2--2--2--2--2--2--2--|--------------------4--4--|--4--4--4--4--4--4--4--4--|--------------------2--2--|
E |--------------------------|--2--2--2--2--2--2--------|--------------------------|--0--0--0--0--0--0--------|

G |--------------------------|---------|
D |--------------------------|---------|
A |--2--2--2--2--2--2--2--2--|---------|
E |--------------------------|--0~~~~--|

Verse III - No Bass

                        Final Chorus
G |-------------|-------------|-------------|----------------|
D |-------------|-------------|-------------|----------------|
A |-------------|--2----2--2--|--0----0--0--|--0----0--0--0--|
E |--0----0--0--|-------------|-------------|----------------|

G |-------------|-------------|-------------|--------------------4--|
D |-------------|-------------|-------------|--------------2--4-----| X2
A |-------------|--2----2--2--|--0----0--0--|--0--2--4--0-----------|
E |--0----0--0--|-------------|-------------|-----------------------|

G |-------------|-------------|----------|
D |-------------|-------------|----------|
A |-------------|--2----2--2--|--0----0--|
E |--4----4--4--|-------------|----------|

                             Outro
G |-------------|-------------|-------------|----------------|
D |-------------|-------------|-------------|----------------|
A |-------------|--2----2--2--|--0----0--0--|--0----0--0--0--|
E |--0----0--0--|-------------|-------------|----------------|

G |-------------|-------------|-------------|--------------------4--|
D |-------------|-------------|-------------|--------------2--4-----| X2
A |-------------|--2----2--2--|--0----0--0--|--0--2--4--0-----------|
E |--0----0--0--|-------------|-------------|-----------------------|

G |-------------|-------------|---------|
D |-------------|-------------|---------|
A |-------------|--2----2--2--|--0~~~~--|
E |--0----0--0--|-------------|---------|

Comment this song and these bass tabs

Do you have corrections, comments on the bass tabs, thoughts about the song or a message to the author? Write them below.