Search tabs and chords

Browse bands and artists

A B C D E F G H I J K L M N O P Q R S T U V W X Y Z #

Log in

[ Register here | Forgot password ]

Guitar Tabs Explorer
Print

Bass tabs :

If Today Was Your Last Day bass tab by Nickelback (Ver. 2)

Verse
G |--------------------------|--------------------------|--------------------------|--------------------------|
D |--------------------------|--0--0--0--0--0--0--0--0--|--------------------------|--------------------------| X2
A |--2--2--2--2--2--2--2--2--|--------------------------|--0--0--0--0--0--0--0--0--|--0--0--0--0--0--0--0--0--|
E |--------------------------|--------------------------|--------------------------|--------------------------|

G |--------------------------|--------------------------|--------------------------|--------------|
D |--------------------------|--0--0--0--0--0--0--0--0--|--------------------------|----------0\--|
A |--2--2--2--2--2--2--2--2--|--------------------------|--0--0--0--0--0--0--0--0--|--------------|
E |--------------------------|--------------------------|--------------------------|--0-----------|

                                          Chorus
G |--------------------------|--------------------------|--------------------------|--------------------------|
D |--------------------------|--0--0--0--0--0--0--0--0--|--------------------------|--------------------------| X2
A |--------------------------|--------------------------|--0--0--0--0--0--0--0--0--|--0--0--0--0--0--0--0--0--|
E |--3--3--3--3--3--3--3--3--|--------------------------|--------------------------|--------------------------|

G |--------------------------|--------------------------|--------------------------|
D |--------------------------|--0--0--0--0--0--0--0--0--|--------------------------|
A |--2--2--2--2--2--2--2--2--|--------------------------|--0--0--0--0--0--0--0--0--|
E |--------------------------|--------------------------|--------------------------|

Rest for a Moment

                                            Post Chorus
G |--------------------------|--------------------------|--------------------------|--------------------------|
D |--------------------------|--0--0--0--0--0--0--0--0--|--------------------------|--------------------------|
A |--2--2--2--2--2--2--2--2--|--------------------------|--0--0--0--0--0--0--0--0--|--0--0--0--0--0--0--0--0--|
E |--------------------------|--------------------------|--------------------------|--------------------------|

                                           Verse II
G |--------------------------|--------------------------|--------------------------|--------------------------|
D |--------------------------|--0--0--0--0--0--0--0--0--|--------------------------|--------------------------| X2
A |--2--2--2--2--2--2--2--2--|--------------------------|--0--0--0--0--0--0--0--0--|--0--0--0--0--0--0--0--0--|
E |--------------------------|--------------------------|--------------------------|--------------------------|

G |--------------------------|--------------------------|--------------------------|--------------|
D |--------------------------|--0--0--0--0--0--0--0--0--|--------------------------|----------0\--|
A |--2--2--2--2--2--2--2--2--|--------------------------|--0--0--0--0--0--0--0--0--|--------------|
E |--------------------------|--------------------------|--------------------------|--0-----------|

                                          Chorus II
G |--------------------------|--------------------------|--------------------------|--------------------------|
D |--------------------------|--0--0--0--0--0--0--0--0--|--------------------------|--------------------------| X3
A |--------------------------|--------------------------|--0--0--0--0--0--0--0--0--|--0--0--0--0--0--0--0--0--|
E |--3--3--3--3--3--3--3--3--|--------------------------|--------------------------|--------------------------|

G |--------------------------|--------------------------|--------------------------|
D |--------------------------|--0--0--0--0--0--0--0--0--|--------------------------|
A |--------------------------|--------------------------|--0--0--0--0--0--0--0--0--|
E |--3--3--3--3--3--3--3--3--|--------------------------|--------------------------|

                   Post Chorus
G |------------|-----------------------------|
D |------------|-----------------------------|
A |------------|-----------------------------|
E |--0------0--|--0-0-0----0-0-0----0-0-0-0--|

                                                   Bridge
G |--------------------------|--------------------------|--------------------------|--------------------------|
D |--0--0--0--0--0--0--0--0--|--------------------------|--------------------------|--------------------------| X4
A |--------------------------|--0--0--0--0--0--0--0--0--|--------------------------|--------------------------|
E |--------------------------|--------------------------|--0--0--0--0--0--0--0--0--|--0--0--0--0--0--0--0--0--|

G |--------------------------------------|
D |-------0-----------------0------------|
A |------------0~~~--------------0-------|
E |--3-----------------3--------------0--|

                                              Final Chorus
G |--------------------------|--------------------------|--------------------------|--------------------------|
D |--------------------------|--0--0--0--0--0--0--0--0--|--------------------------|--------------------------| X2
A |--------------------------|--------------------------|--0--0--0--0--0--0--0--0--|--0--0--0--0--0--0--0--0--|
E |--3--3--3--3--3--3--3--3--|--------------------------|--------------------------|--------------------------|

G |---------|
D |---------|
A |---------|
E |--0~~~~--|

Track 10 from Dark Horse - If Today Was Your Last Day.

Other versions of If Today Was Your Last Day

- If today was your last dayBass tabs

Comments

Nickelback bass tabs for If today was your last day (Ver. 2)