Guitar Tabs Explorer
Nickelback bass tabs for Id come for you (Ver. 2)

I'd Come For You bass tab


Be the first to rate


CaughtinthestormAuthor: Caughtinthestorm

Jamplay guitar lessons

I'd Come For You bass tab by Nickelback (Ver. 2)

Bass tabs

Print
  • Tuning: Standard tuning
  • Difficulty: Novice

Track 4 from Dark Horse - I`d Come for You

Tuning - Standard

Verse - No Bass

                             Pre Chorus
G |--------------------------------|----------------------------|
D |--------------------------------|----------------------------| X4
A |--------------------------------|--5--5--5--5-5--------------|
E |--0--0--0--0--2--3--3--3--3--5--|----------------5--5--5--5--|

                                           Chorus
G |--------------------------|--------------------------|--------------------------|---------------------------|
D |--------------------------|--------------------------|--------------------------|---------------------------|
A |--5--5--5--5--5--5--5--5--|--------------------------|--------------------------|------------------------5--|
E |--------------------------|--7--7--7--7--7--7--7--7--|--5--5--5--5--5--5--5--5--|--3--3--3--3--5--5--5-7----|

G |--------------------------------|--------------------------|--------------------------|
D |--------------------7-----------|--------------------------|--------------------------|
A |--5--5--5--5--5--5-----5-----5--|--------------------------|--------------------------|
E |--------------------------7-----|--7--7--7--7--7--7--7--7--|--5--5--5--5--5--5--5--5--|

G |--------------------------|
D |--------------------------|
A |--------------------------|
E |--1--1--1--1--3--3--3--3--|

                                 Post Chorus
G |-----------------------------|--------------------------|--------------------------|
D |--------------------------4--|--------------------------|--------------------------|
A |--5--5--5--5--------5--7-----|--------------------------|--------------------------|
E |--------------5--7-----------|--7--7--7--7--7--7--7--7--|--5--5--5--5--5--5--5--5--|

G |------------------------------------------|
D |------------------3--------------------5--|
A |------------3--5-----------------5--7-----|
E |--1----1---------------3----3-------------|

Rest for a moment

Verse II - No Bass

                           Pre Chorus
G |--------------------------------|----------------------------|
D |--------------------------------|----------------------------| X4
A |--------------------------------|--5--5--5--5-5--------------|
E |--0--0--0--0--2--3--3--3--3--5--|----------------5--5--5--5--|

                                        Chorus II
G |--------------------------|--------------------------|--------------------------|---------------------------|
D |--------------------------|--------------------------|--------------------------|---------------------------|
A |--5--5--5--5--5--5--5--5--|--------------------------|--------------------------|------------------------5--|
E |--------------------------|--7--7--7--7--7--7--7--7--|--5--5--5--5--5--5--5--5--|--3--3--3--3--5--5--5-7----|

G |--------------------------------|--------------------------|--------------------------|
D |--------------------7-----------|--------------------------|--------------------------|
A |--5--5--5--5--5--5-----5-----5--|--------------------------|--------------------------|
E |--------------------------7-----|--7--7--7--7--7--7--7--7--|--5--5--5--5--5--5--5--5--|

G |--------------------------|--------------------------|
D |--------------------------|--------------------------|
A |--------------------------|--------------------------|
E |--1--1--1--1--3--3--3--3--|--1--1--1--1--3--3--3--3--|

                                   Bridge
G |-----------------------------|--------------------------|--------------------------|
D |--------------------------4--|--------------------------|--------------------------|
A |--5--5--5--5--------5--7-----|--------------------------|--------------------------|
E |--------------5--7-----------|--7--7--7--7--7--7--7--7--|--5--5--5--5--5--5--5--5--|

G |------------------------------------------|
D |------------------3--------------------5--|
A |------------3--5-----------------5--7-----|
E |--1----1---------------3----3-------------|

Rest for a Moment

G |----------------------------------|
D |----------------------7-----------|
A |--5--5----5--5--5--5-----5-----5--|
E |----------------------------7-----|

                              Final Chorus
G |--------------------------|--------------------------|--------------------------|
D |--------------------------|--------------------------|--------------------------|
A |--------------------------|--------------------------|--------------------------|
E |--7--7--7--7--7--7--7--7--|--5--5--5--5--5--5--5--5--|--1--1--1--1--3--3--3--3--|

                                   Outro
G |-----------------------------|--------------------------|--------------------------|
D |--------------------------4--|--------------------------|--------------------------|
A |--5--5--5--5--------5--7-----|--------------------------|--------------------------|
E |--------------5--7-----------|--7--7--7--7--7--7--7--7--|--5--5--5--5--5--5--5--5--|

G |------------------------------------------|
D |------------------3--------------------5--|
A |------------3--5-----------------5--7-----|
E |--1----1---------------3----3-------------|

G |-----------------------------|--------------------------|--------------------------|
D |--------------------------4--|--------------------------|--------------------------|
A |--5--5--5--5--------5--7-----|--------------------------|--------------------------|
E |--------------5--7-----------|--7--7--7--7--7--7--7--7--|--5--5--5--5--5--5--5--5--|

G |------------------------------------------|----------------------------------|
D |------------------3--------------------5--|------------3----------2-5--------|
A |------------3--5-----------------5--7-----|--1--1--1-3----3--3--3---------5--|
E |--1----1---------------3----3-------------|----------------------------------|

Other versions of I'd Come For You

- I'd come for youBass tabs

Comment this song and these bass tabs

Do you have corrections, comments on the bass tabs, thoughts about the song or a message to the author? Write them below.