Guitar Tabs Explorer
Nickelback bass tabs for I dont have

I Don't Have bass tab


Be the first to rate

Jamplay guitar lessons

I Don't Have bass tab by Nickelback

Bass tabs

Print

Intro

G|---|
D|---|
A|---|
D|2--|

G|------------|------------| (x2)
D|---4h5h42-5-|---4h5h4----|
A|------------|------------|
D|44----------|44-------2--|

Verse

G|------------|----------| -----------|
D|------------|------(x2)|------------|
A|------------|----------|------------|
D|44-4h5h42-5-|44-0-2----|44-4h5h42---|

Pre-Chorus

G|------------------------------------| (x3)
D|------------------------------------|
A|------------------------------------|
D|99999999-77777777-55555555-77777777-|

G|------------------------------|
D|------------------------------|
A|------------------------------|
D|99999999-77777777-55555555-777|

Chorus

G|------------------------| (x2)
D|------------------------|
A|------------------------|
D|0h99--0h77--0h22--0h99--|

G|----------------------|
D|----------------------|
A|----------------------|
D|77777777-555555555555-|

Pre-Verse

G|------------|------------| (x2)
D|---4h5h42-5-|---4h5h4----|
A|------------|------------|
D|44----------|44-------2--|

Verse

G|------------|----------| -----------|
D|------------|------(x3)|------------|
A|------------|----------|------------|
D|44-4h5h42-5-|44-0-2----|44-4h5h42---|

Pre Chorus

G|------------------------------------|
D|------------------------------------|
A|------------------------------------|
D|99999999-77777777-55555555-77777777-|

G|------------------------------|
D|------------------------------|
A|------------------------------|
D|99999999-77777777-55555555-777|

Chorus

G|------------------------| (x2)
D|------------------------|
A|------------------------|
D|0h99--0h77--0h22--0h99--|

G|--------------------------------------------------------------|
D|--------------------------------------------------------------|
A|---------------------------33333333---------------------------|
D|77777777-55555555-77777777----------55555555-77777777-77777777|

G|-----------------------------------| (x6)
D|-----------------------------------|
A|33333333---------------------------|
D|---------55555555-77777777-77777777|

Chorus

G|------------------------| (x2)
D|------------------------|
A|------------------------|
D|0h99--0h77--0h22--0h99--|

G|------------------------------------|(x2)
D|------------------------------------|
A|------------------------------------|
D|99999999-77777777-22222222-99999999-|

G|----------------------------------|
D|----------------------------------|
A|----------------------------------|
D|99999999-77777777-22222222-9~-----|

Comment this song and these bass tabs

Do you have corrections, comments on the bass tabs, thoughts about the song or a message to the author? Write them below.